tablaturas, partituras y acordes para guitarra
Busca por banda/artista:
 
y/o título de la canción:
A B C D E F G H I J K L M N O P Q R S T U V W X Y Z 0 1 2 3 4 5 6 7 8 9 / Top 100 tabs
Categorías
Usuarios
usuario:
Darse de alta
password:
Artistas más visitados
Publicidad
TOP acordes y tablaturas de Helloween


Mankind
de Helloween
Puntúa este acorde/tab:      
(0.1/5)
Reportar este acorde/tab
  Añadir a tus favoritos
  Imprimir
Introdução         14X                                                               2X
  Fade in
G||----11---11--11---11--|--11---8---9---10-|---------|---|-----|---------|-----|---------|------
D||*--------------------*|------------------|*--------|---|-----|---------|-----|--------*|------
A||*-9----9----9----9---*|-9---6---7---8----|*--------|---|-----|---------|-----|--------*|------
E||----------------------|------------------|--2--2-2-|-2-|-2-2-|-2--2-2-2|-2-2-|-2--2-2-2|-2-2-2

                                 8x
G|----------------------------------|-------------|-------|--|--------|----------|
D|*--------------------------------*| ----------1-|-------|--|--------|----------|
A|*-2-----3-----2-----5-3-2--------*|-5-3-2-3-5---|-------|--|-6-5-x-6|-5-x------|
E|----3-0---2-3---3-0-------5-3-2-3-|-------------|-3-3-1-|--|--------|-----6-5--|

                                                Verso 1
G--------------|-------|---------|---------||--|---------|---------|---------|---------|
D------5---5-7-|-7-8-8-|---------|---------||--|*--------|---------|---------|---------|
A----5---5-----|-------|-6-5-x-6-|-5-x-----||--|*--------|---------|-5-5-5-5-|-5-5-5-5-|
E—3------------|-------|---------|-----6-5-||--|-0-0-0-0-|-0-0-0-0-|---------|---------|
                                        ____________  ____________
                                       |1            |2
G-------------|-------------|----------|-------------|------------|
D-------------|-------------|---------*|-----------1-|---------4-1|
A-------------|-----------2-|-3-3-3-3-*|-5-3-2-3-5---|-----4-2----|
E-3-5-3-5-5-0-|-3-5-3-5-5---|----------|-------------|-2-5--------|

 Refrão
G---------------|-----------------|-----------------|-----------------|-----------------|
D---------------|-----------------|-----------------|-----------------|-----------------|
A---------------|-2-2-2-2-2-2-2-2-|-----------------|-2-2-2-2-6-6-6-6-|-----------------|
E-0-0-0-0-0-0-0-|-----------------|-5-5-5-5-0-0-0-0-|-----------------|-0-0-0-0-0-0-0-0-|


G-----------------|-----------------|-----------------|-----------------|-----------------|
D-----------------|-----------------|-----------------|-2-2-2-2-2-2-2-2-|-1-1-1-1-1-1-1-1-|
A-2-2-2-2-2-2-2-2-|-----------------|-2-2-2-2-------6-|-----------------|-----------------|
E-----------------|-5-5-5-5-0-0-0-0-|---------2-2-4---|-----------------|-----------------|


G-----------------|-----------------|-----------------------|-------------------|-----------|
D-----------------|-----------------|-----------------------|-------------------|-----------|
A-4-4-4-4-4-4-4-4-|-2-2-2-2-2-2-2---|-----------------------|-----------------4-|-2-4-6-6-6-|
E-----------------|---------------4-|-5-5-5-5-5-5-0-0-0-5-0-|-2-0-0-0-0-0-0-0---|-----------|

G---------------------|-------|-|--------|---------|------------|-------|---------|
D---------------------|-------|-|--------|---------|----5---5-7-|-------|---------|
A-2-2-2-2-2-2-2-2-2-2-|-------|-|-6-5-x-6|-5-x-----|--5---5-----|-7-8-8-|-6-5-x-6-|
E---------------------|-3-3-1-|-|--------|-----6-5-|-3----------|-------|---------|

              Verso 2
G---------|--|---------|---------|---------|---------|-------------|-------------|----------|
D---------|--|*--------|---------|---------|---------|-------------|-------------|---------*|
A-5-x-----|--|*--------|---------|-5-5-5-5-|-5-5-5-5-|-------------|-----------2-|-3-3-3-3-*|
E-----6-5-|--|-0-0-0-0-|-0-0-0-0-|---------|---------|-3-5-3-5-5-0-|-3-5-3-5-5---|----------|


  ____________  ____________   
 |1            |2             Refrão
G|-------------|------------|---------------|-----------------|-----------------|
D|-----------1-|---------4-1|---------------|-----------------|-----------------|
A|-5-3-2-3-5---|-----4-2----|---------------|-2-2-2-2-2-2-2-2-|-----------------|
E|-------------|-2-5--------|-0-0-0-0-0-0-0-|-----------------|-5-5-5-5-0-0-0-0-|


G|-----------------|-----------------|-----------------|-----------------|
D|-----------------|-----------------|-----------------|-----------------|
A|-2-2-2-2-6-6-6-6-|-----------------|-2-2-2-2-2-2-2-2-|-----------------|
E|-----------------|-0-0-0-0-0-0-0-0-|-----------------|-5-5-5-5-0-0-0-0-|



G|-----------------|-----------------|-----------------|-----------------|-----------------|
D|-----------------|-2-2-2-2-2-2-2-2-|-1-1-1-1-1-1-1-1-|-----------------|-----------------|
A|-2-2-2-2-------6-|-----------------|-----------------|-4-4-4-4-4-4-4-4-|-2-2-2-2-2-2-2---|
E|---------2-2-4---|-----------------|-----------------|-----------------|---------------4-|


G-----------------------|-------------------|-----------|-------------------------|
D-----------------------|-------------------|-----------|-------------------------|
A-----------------------|-----------------4-|-2-4-6-6-6-|-------------------------|
E-5-5-5-5-5-5-0-0-0-5-0-|-2-0-0-0-0-0-0-0---|-----------|-7-3-0-7-3-0-7-3-0-7-3-0-|


G-------------------------|-------------------------|-------------------------|
D-------------------------|-------------------------|-------------------------|
A-------------------------|-3-2-0-3-2-0-3-2-0-3-2-0-|-3-2-0-3-2-0-3-2-0-3-2-0-|
E-7-3-0-7-3-0-7-3-0-7-3-0-|-------------------------|-------------------------|


G-------------------------|-------------------------|-------------------------|
D-------------------------|-------------------------|-------------------------|
A-7-3-0-7-3-0-7-3-0-7-3-0-|-7-3-0-7-3-0-7-3-0-7-3-0-|-3-2-0-3-2-0-3-2-0-3-2-0-|
E-------------------------|-------------------------|-------------------------|

                                                    4x   Solo de guitarra
G-------------------------|-------------------|---------|---------|---------|---------|
D-------------------------|*------------------|--------*|---------|---------|---------|
A-3-2-0-3-2-0-3-2-0-3-2-0-|*-2-----3-----2----|--------*|---------|---------|---------|
E-------------------------|----3-0---2-3---3--|-0-0-0-0-|-3-3-3-3-|-3-3-3-3-|-3-3-3-3-|


G-----------------|---------------|---------|---------------|-----|-------------|-------------|
D-----------------|---------------|---------|---------------|-----|-----------1-|---------1-4-|
A---3-2-----------|-----2---2-3---|-2---2-3-|-----2---2-3---|-----|-5-3-2-3-5---|-----4-2-----|
E-3-----3-2-3-2-0-|-0-0---0-----0-|---0-----|-0-0---0-----0-|-0-2-|-------------|-2-5---------|

                                                                            Solo de Baixo
G---|---|---|---|---|---|---|---|-----|-----|-----|-----|-----|-----|---|---|----------|--------|
D-2-|(2)|(2)|(2)|(2)|(2)|(2)|(2)|-----|-----|-----|-----|-----|-----|---|---|--2-------|--------|
A---|---|---|---|---|---|---|---|-----|-2-2-|-0-0-|-2-2-|-----|-2-2-|-2-|-2-|----------|--------|
E---|---|---|---|---|---|---|---|-0-0-|-----|-----|-----|-0-0-|-----|---|---|-0—-0-0-0-|-0-0-0-0|


                                     Verso 3
G-9-8---7-6---5-4-|-----------------|---------|---------|---------|---------|-------------|
D-----9-----7-----|-5---------------|---------|---------|---------|---------|-------------|
A-----------------|---2-1-2-3-4-5-6-|---------|---------|-5-5-5-5-|-5-5-5-5-|-------------|
E-----------------|-----------------|-0-0-0-0-|-0-0-0-0-|---------|---------|-3-5-3-5-5-0-|

                                        Refrão
G-------------|----------|-------------|---------------|-----------------|-----------------|
D-------------|----------|---------1-4-|*--------------|-----------------|-----------------|
A-----------2-|-3-3-3-3--|-----4-2-----|*--------------|-2-2-2-2-2-2-2-2-|-----------------|
E-3-5-3-5-5---|----------|-2-5---------|-0-0-0-0-0-0-0-|-----------------|-5-5-5-5-0-0-0-0-|


G|-----------------|-----------------|-----------------|-----------------|
D|-----------------|-----------------|-----------------|-----------------|
A|-2-2-2-2-6-6-6-6-|-----------------|-2-2-2-2-2-2-2-2-|-----------------|
E|-----------------|-0-0-0-0-0-0-0-0-|-----------------|-5-5-5-5-0-0-0-0-|



G|-----------------|-----------------|-----------------|-----------------|-----------------|
D|-----------------|-2-2-2-2-2-2-2-2-|-1-1-1-1-1-1-1-1-|-----------------|-----------------|
A|-2-2-2-2-------6-|-----------------|-----------------|-4-4-4-4-4-4-4-4-|-2-2-2-2-2-2-2---|
E|---------2-2-4---|-----------------|-----------------|-----------------|---------------4-|


                                                          _____________________ _____
                                                         |1                    |2
G-----------------------|-------------------|------------|---------------------|-----|
D-----------------------|-------------------|-----------*|---------------------|-----|
A-----------------------|-----------------4-|-2-4-6-6-6-*|-2-2-2-2-2-2-2-2-2-2-|-(6)-|
E-5-5-5-5-5-5-0-0-0-5-0-|-2-0-0-0-0-0-0-0---|------------|---------------------|-----|



G--------------|-------|---------|---------|----------||
D------5---5-7-|-7-8-8-|---------|---------|----------||
A----5---5-----|-------|-6-5-x-6-|-5-x-----|----------||
E—3------------|-------|---------|-----6-5-|-2-2--2-2-||		   
AcordesyTabs.com © 2008 Acordes y Tablaturas para guitarra. Tabs and Chords for guitar. Aviso Legal - Contacto
El uso de este sitio está sujeto a la aceptación de los términos y condiciones (23 usuarios online)