tablaturas, partituras y acordes para guitarra
Busca por banda/artista:
 
y/o título de la canción:
A B C D E F G H I J K L M N O P Q R S T U V W X Y Z 0 1 2 3 4 5 6 7 8 9 / Top 100 tabs
Categorías
Usuarios
usuario:
Darse de alta
password:
Artistas más visitados
Publicidad
TOP acordes y tablaturas de Mago de oz


Estás en: Inicio > Letra M > Acordes y tablaturas de Mago de oz > A costa da morte
A costa da morte
de Mago de oz
Puntúa este acorde/tab:      
(0.4/5)
Reportar este acorde/tab
  Añadir a tus favoritos
  Imprimir
INTRO:
   G       Am      Em      C      G       Am
e--3-----3-0-----0-0-----0-0----0-3-----3-0-----0-----0-3-
B--0---0---1---1---0---0---1---1--0---0---1---1---1-0-1-0-
G----0-------2-------0-------0------0-------2-----0-0-----
D---------------------------------------------------------
A----------0---------------3--------------0-------3-2-0---
E--3---------------0--------------3---------------------3-
REPETIR INTRO.

ESTROFA I (CON ACOMPAÑAMIENTO DEL INTRO):

e-----5-7---5-5-7-8-7-10-8-7-5-----5-7---5-8-7-5-----
B-8-8-----8--------------------8-8-----8---------8---
G----------------------------------------------------
REPETIR ESTROFA I.

ESTROFA II:

e--10------7-8-7------10------7-8-7-----5----------
B-----8-10-------10-8----8-10----------------------
G--------------------------------------------------

ESTROFA III:

e--10------7-8-7------10------7-5---------
B-----8-10-------10-8----8-10-------------
G-----------------------------------------
REPETIR ESTROFA I DOS VECES.
REPETIR ESTROFA II.

ESTROFA IV:

e--10------7-8-7------10------7-5-0------
B-----8-10-------10-8----8-10------------
G----------------------------------------

ESTROFA V:

e-----------5-5-5----------5-----7-7-7-5---5-5-5-7-8-7-5-----------
B-5-5-5-7-8-------8-7-8-8-8--8-5---------8---------------8-7-8-7-5-
G------------------------------------------------------------------
REPETIR ESTROFA V.

ESTROFA VI:

e--8-8-8-7----10-7---12-12-10-12-10-----
B----------10------8----------------12--
G---------------------------------------

ESTROFA VII:

e--8-8-10-12-10------15-14-15-17-14-----
B---------------12-8--------------------
G---------------------------------------
REPETIR ESTROFA V.

ESTROFA VIII:
(ESTA ES UNA BAJADA DIFICIL DE TRANSCRIBIR PERO ARRANCA
CON LA PRIMERA CUERDA EN EL TRASTE 15 Y TERMINA CON LA
MISMA CUERDA AL AIRE).

REPETIR ESTROFA V DOS VECES.
REPETIR ESTROFA VI.
REPETIR ESTROFA VII.
REPETIR ESTROFA VI.
REPETIR ESTROFA VIII.
REPETIR ESTROFA I DOS VECES.

ESTROFA IX:

e-10-10-10...-----------7-8-7------7-8-7---------
B------------8-8-8...10-------8-10-------10-8----
G------------------------------------------------

e-10-10-10...-----------7-8-7----------------
B------------8-8-8...10----------------------
G--------------------------------------------

e-10-10-10...-----------7-8-7------7-8-7---------
B------------8-8-8...10-------8-10-------10-8----
G-----------------------------------------------

e-10-10-10...-----------7-------------------------
B------------8-8-8...10---10-8-8-8-8-8-8-8-8...---
G-------------------------------------------------

FINAL:

e------------8-8-8--------------8----10-10-10-8--8-8-8-10-11-10-8--------------
B-8-8-8-10-11-----11-10-11-11-11-11-8----------11----------------11-10-11-10-8-
G------------------------------------------------------------------------------
REPETIR FINAL TRES VECES Y:

e-15-

                    FIN		   
AcordesyTabs.com © 2008 Acordes y Tablaturas para guitarra. Tabs and Chords for guitar. Aviso Legal - Contacto
El uso de este sitio está sujeto a la aceptación de los términos y condiciones (30 usuarios online)