tablaturas, partituras y acordes para guitarra
Busca por banda/artista:
 
y/o título de la canción:
A B C D E F G H I J K L M N O P Q R S T U V W X Y Z 0 1 2 3 4 5 6 7 8 9 / Top 100 tabs
Categorías
Usuarios
usuario:
Darse de alta
password:
Artistas más visitados
Publicidad
TOP acordes y tablaturas de Gamma ray


Afterlife
de Gamma ray
Puntúa este acorde/tab:      
(0.4/5)
Reportar este acorde/tab
  Añadir a tus favoritos
  Imprimir
Here's t he 2 main RIFF of the song :

 RIFF I
e|.---.---.---.---.---.---.---.---|.---.---.---.---.---.---.---.---|
B|--------------------------------|--------------------------------|
G|--------------------------------|--------------------------------|
D|--------------------------------|--------------------7-------5---|
A|----2---------------2-----------|----2-----------55555---33333---|
E|0000--3'--0022330000--3-22335533|0000--3'--002233----------------|
P.M[.]      [........]    [...........]      [........]    [..]      

 
 RIFF II
e|.---.---.---.---.---.---.---.----|.---.---.---.---.---.---.---.--|
B|---------------------------------|-------------------------------|
G|---------------------------------|---------------/7-5-xx4-5------|
D|-----------------------------hp--|---------------/7-5-xx4-5------|
A|2-----2-----2---3-----3-----353--|2-----2-----2--/5-3-xx2-3------|
E|--0000--0000--00--0000--0000---00|--0000--0000--00------------023|
P.M [..]  [..] [..] [..]  [..]  [..]  [..]  [..] [..]         [..] 
 


And here's a great multicolor tab ;)

INTRO 

  Guit.2
e|.-------.-------.-------.--------.-------.-------.-------.-------|
B|-----------------------------------------------------------------|
G|--------(b9)------------------------h-p-h-----------h--------------|
D|------------(b9)--10--7~~------(b9)--7-(b9)7-5-4-------4-5-------------|
A|------------------------------------------------------7------5---|
E|-----------------------------------------------------------------|
||Guit.1
e|.-------.-------.-------.-------|.-------.-------.-------.-------|
B|--------------------------------|--------------------------------|
G|--------------------------------|----------------------------7---|
D|2-------------------------------|----------------------------7---|
A|2-------------------------------|----------------------------5---|
E|0-------------------------------|--------------------------------|



  Guit.2
e|.-------.-------.-------.--------.-------.-------.-------.-------|
B|-----------------------------------------------------------------|
G|--------(b9)------------------------h-p-h--------------------------|
D|--------(b9)--(b9)--10--7~~------(b9)--7-(b9)7-5-4~~---------------------|
A|-------------------------------------------------------------5---|
E|0----------------------------------------------------------------|
||Guit.1
e|.-------.-------.-------.-------|.-------.-------.-------.-------|
B|--------------------------------|--------------------------------|
G|--------------------------------|----------------------------7---|
D|2-------------------------------|----------------------------7---|
A|2-------------------------------|----------------------------5---|
E|0-------------------------------|--------------------------------|


  Guit.2 et 3
e|.-------12------.-------.---------h-p-h--.--------h-------.------|
B|------------12--13--10~~----12---1012108-7-------7-8-------------|
G|--------(b9)------------------------h-p-h-----------h---9~~----7---|
D|------------(b9)--10--7~~------(b9)--7-(b9)7-5-4-------4-5-------------|
A|------------------------------------------------------7------5---|
E|0----------------------------------------------------------------|
||Guit.1
e|.-------.-------.-------.-------|.-------.-------.-------.-------|
B|--------------------------------|--------------------------------|
G|--------------------------------|----------------------------7---|
D|2-------------------------------|----------------------------7---|
A|2-------------------------------|----------------------------5---|
E|0-------------------------------|--------------------------------|


  Guit.2 et 3
e|.-------12------.-------.---------h-p-h--.-------.--------.------|
B|------------12--13--10~~----12---1012108-7---------------/10~~---|
G|9~------(b9)------------------------h-p-h----------7---------------|
D|------------(b9)--10--7~~------(b9)-|7-(b9)7-5-4-----------------------|
A|--------------------------------|--------------------------------|
E|0-------------------------------|--------------------------------|
||Guit.1
e|.-------.-------.-------.-------|.-------.-------.-------.-------|
B|--------------------------------|--------------------------------|
G|--------------------------------|--------7-----------------------|
D|2-------------------------------|--------7-----------------------|
A|2-------------------------------|--------5-----------------------|
E|0-------------------------------|--------------------------------|

SOLO I (+RIFF I) 

  Guit.2
e|.-------.-------.-------.-------.-----h-p-------.-------.-------|
B|---^~~------121315--13--12--15--13--121312------13--12----------|
G|14^-----------------------------------------14----------14~~----|
D|----------------------------------------------------------------|
A|----------------------------------------------------------------|
E|----------------------------------------------------------------|


  Guit.2
e|.---.---.---.---.---.---.---.---.---------19^+0.5~~~~~~~~~~-----|
B|-------/171920~~----171920--201917----1(b9)-17~~~~~~~~------------|
G|-----------------------------------1(b9)--------------------------|
G|----------------------------------------------------------------|
D|----------------------------------------------------------------|
A|----------------------------------------------------------------|
E|----------------------------------------------------------------|

  Guit.2
e|171920--19171(b9)171517--151415--19171(b9)-171517--151415--141214--15|
B|-----------------------------------------------------------------|
G|-----------------------------------------------------------------|
D|-----------------------------------------------------------------|
A|-----------------------------------------------------------------|
E|-----------------------------------------------------------------|

  Guit.2
e|14121415--141517-15171(b9)-201917-|
B|--------------------------------|
G|--------------------------------|
D|--------------------------------|
A|--------------------------------|
E|--------------------------------|

COUPLET I 

 Do you believe in the afterworld or the afterlife ?

e|19~~~~~~~~~~~~~~^+0.5^^^^^^^^^^^^19~~~~~~~~~~~-------------------|
B|--------------------------------|pick----------------------------|
G|--------------------------------|--------------------------------|
D|--------------------------------|--------------------------------|
A|--------------------------------|--------------------------------|
E|--------------------------------|--------------------------------|
||Guit.accoust.
e|.---.---.---.---.---.---.---.---|.---.---.---.---.---.---.---.---|
B|--------------------------------|--------------------------------|
G|--------------------------------|--------------------------------|
D|(b9)----(b9)----(b9)--10----10----10--|(b9)-----(b9)----(b9)-----------------|
A|--------------------------------|--------------------------------|
E|--0-----0-----------------0-----|----------0---------------------|
||Guit.1
e|.---.---.---.---.---.---.---.---|.---.---.---.---.---.---.---.---|
B|--------------------------------|--------------------------------|
G|--------------------------------|----------------/7-5-xx4-5------|
D|2-------------------------------|----------------/7-5-xx4-5------|
A|2-------------------------------|----------------/5-3-xx2-3------|
E|0-------------------------------|-----------------------------023|
P.M.                                                           [.]

 Do you agree there's a place for us beyond the life ?      When the
  Guit.accoust.
e|.---.---.---.---.---.---.---.---|.---.---.---.---.---.---.---.---|
B|--------------------------------|--------------------------------|
G|--------------------------------|--------------------------------|
D|(b9)----(b9)----(b9)--10----10----10--|(b9)-----(b9)----(b9)-----------------|
A|--------------------------------|--------------------------------|
E|--0-----0-----------------0-----|----------0---------------------|
||Guit.1
e|.---.---.---.---.---.---.---.---|.---.---.---.---.---.---.---.---|
B|--------------------------------|--------------------------------|
G|--------------------------------|----------------/7-5-xx4-5------|
D|2-------------------------------|----------------/7-5-xx4-5------|
A|2-------------------------------|----------------/5-3-xx2-3------|
E|0-------------------------------|-----------------------------023|
P.M.                                                           [.]

 timeless call for life is lost and you will see...              the
  Guit.1
e|.---.---.---.---.---.---.---.----|.---.---.---.---.---.---.---.--|
B|---------------------------------|-------------------------------|
G|---------------------------------|---------------/7-5-xx4-5------|
D|-----------------------------hp--|---------------/7-5-xx4-5------|
A|2-----2-----2---3-----3-----353--|2-----2-----2--/5-3-xx2-3------|
E|--0000--0000--00--0000--0000---00|--0000--0000--00------------023|
P.M [..]  [..] [..] [..]  [..]  [..]  [..]  [..] [..]         [..] 

 forgotten dreams that you once had become
  Guit.1
e|.---.---.---.---.---.---.---.-|
B|------------------------------|
G|------------------------------|
D|------------------------------|
A|2-----2-----2---3-----3-----3-|
E|--0000--0000--00--0000--0000--|
P.M [..]  [..] [..] [..]  [..]

BRIDGE 

 reality                    they will be set free

e|.---.---.---.---.---.---.---.---|.---.---.---.-h-12~~~~~~~~--.---|
B|--------------------------------|------------1012----------------|
G|--------------------------------|--------------------------------|
D|--------------------------------|--------------------------------|
A|--------------------------------|--------------------------------|
E|--------------------------------|--------------------------------|
||Guit.accoust.
e|.---.---.---.---.---.---.---.---|.---.---.---.---.---.---.---.---|
B|--------------------------------|--------------------------------|
G|--------------------------------|------------4-------------------|
D|----5-------7-------------------|--------5-----------------------|
A|--------5-----------------------|----7---------------------------|
E|--------------------------------|--------------------------------|
||Guit.1
e|.---.---.---.---.---.---.---.---|.---.---.---.---.---.---.---.---|
B|--------------------------------|--------------------------------|
G|7-------------------------------|(b9)------------------------------|
D|7-------------------------------|(b9)------------------------------|
A|5-------------------------------|7-------------------------------|
E|--------------------------------|--------------------------------|

 another day                    you can not live if you do not want to

||Guit.accoust.
e|.---.---5---.---.---.---.---.---|.---.---.---.---.---.---.---.---|
B|--------------------------------|--------------------------------|
G|----7---------------------------|--------------------------------|
D|--------------------------------|--------------------------------|
A|--------------------------------|--------------------------------|
E|--------------------------------|--------------------------------|
||Guit.1
e|.---.---.---.---.---.---.---.---|.---.---.---.---.---.---.---.---|
B|--------------------------------|--------------------------------|
G|7-------------------------------|5---------------7---------------|
D|7-------------------------------|5---------------7---------------|
A|5-------------------------------|3---------------5---------------|
E|--------------------------------|--------------------------------|

REFRAIN 

                                                     in the after
  Guit.1 & Guit.2
e|.---.---.---.---.---.---.---.---|12~~~~~~~~~~~~~~~~~~~~~~~~~~~~~~|
B|-----------------------------/12|~~~~~~~~~~~~~~~~~~~Let Ring-----|
G|--------------------------------|--------------------------------|
D|--------------------------------|--------------------7-------5---|
A|----2---------------2-----------|----2-----------55555---33333---|
E|0000--3'--0022330000--3-22335533|0000--3'--002233----------------|
P.M[.]      [........]    [...........]      [........]    [..]     

life                                                in the after
  Guit.1
e|~~~~~~~~~~~~~~--.---.---.---.---|.---.---.---.---.---.---.---.---|
B|--------------------------------|--------------------...end solo |
G|--------------------------------|--------------------------------|
D|--------------------------------|--------------------7-------5---|
A|----2---------------2-----------|----2-----------55555---33333---|
E|0000--3'--0022330000--3-22335533|0000--3'--002233----------------|
P.M[.]      [........]    [...........]      [........]    [..]     

COUPLET II 

Life's dream you will forget in the endless space
Guit.accoust.
e|.---.---.---.---.---.---.---.---|.---.---.---.---.---.---.---.---|
B|--------------------------------|--------------------------------|
G|--------------------------------|--------------------------------|
D|(b9)----(b9)----(b9)--10----10----10--|(b9)-----(b9)----(b9)-----------------|
A|--------------------------------|--------------------------------|
E|--0-----0-----------------0-----|----------0---------------------|
||Guit.1
e|.---.---.---.---.---.---.---.---|.---.---.---.---.---.---.---.---|
B|17~~~~~~~~~~~~~~~~~~~~~~~~~~~~~~|17~~~~~~~~~~--------------------|
G|--------------------------------|P.Harm----------/7-5-xx4-5------|
D|2-------------------------------|----------------/7-5-xx4-5------|
A|2-------------------------------|----------------/5-3-xx2-3------|
E|0-------------------------------|-----------------------------023|
P.M.                                                           [.]

 scares you've got on planet earth will be erased
  Guit.accoust.
e|.---.---.---.---.---.---.---.---|.---.---.---.---.---.---.---.---|
B|--------------------------------|--------------------------------|
G|--------------------------------|--------------------------------|
D|(b9)----(b9)----(b9)--10----10----10--|(b9)-----(b9)----(b9)-----------------|
A|--------------------------------|--------------------------------|
E|--0-----0-----------------0-----|----------0---------------------|
||Guit.1
e|.---.---.---.---.---.---.---.---|.---.---.---.---.---.---.---.---|
B|--------------------------------|--------------------------------|
G|--------------------------------|----------------/7-5-xx4-5------|
D|2-------------------------------|----------------/7-5-xx4-5------|
A|2-------------------------------|----------------/5-3-xx2-3------|
E|0-------------------------------|-----------------------------023|
P.M.                                                           [.]

.......


LAST PART 

There is also a guit.3 the second time.

Guit.2
e|--------------------------------------------------------------------------|
B|1201301001208010070001201301001208010070001201301001208010070805070405~~~~|
G|--------------------------------------------------------------------------|
D|--------------------------------------------------------------------------|
A|--------------------------------------------------------------------------|
E|--------------------------------------------------------------------------|
||Guit.1
e|--------------------------------------------------------------------------|
B|--------------------------------------------------------------------------|
G|4--------------------------------------------------------------------(b9)---|
D|4--------------------------------------------------------------------(b9)---|
A|2--------------------------------------------------------------------7----|
E|--------------------------------------------------------------------------|

 Now you're gone without a word you didn't say goobye
e|.---.---.---.---.---.---.---.---|.---.---.---.---.---.---.---.---|
B|--------------------------------|--------------------------------|
G|2---------------5---------------|4---------------7---------------|
D|2---------------5---------------|4---------------7---------------|
A|0---------------3---------------|2---------------5---------------|
E|--------------------------------|--------------------------------|

I miss you here where are you now an angel in the sky ?
e|.---.---.---.---.---.---.---.---|.---.---.---.---.---.---.---.---|
B|--------------------------------|--------------------------------|
G|2---------------5---------------|4---------------7---------------|
D|2---------------5---------------|4---------------7---------------|
A|0---------------3---------------|2---------------5---------------|
E|--------------------------------|--------------------------------|

Your visit here has been too short you left to be set free
e|.---.---.---.---.---.---.---.---|.---.---.---.---.---.---.---.---|
B|--------------------------------|--------------------------------|
G|2---------------5---------------|4---------------7---------------|
D|2---------------5---------------|4---------------7---------------|
A|0---------------3---------------|2---------------5---------------|
E|--------------------------------|--------------------------------|

But I believe we'll meet again and together we will stay
e|.---.---.---.---.---.---.---.---|.---.---.---.---.---.---.---.---|
B|--------------------------------|--------------------------------|
G|2---------------5---------------|4-------------------------------|
D|2---------------5---------------|4---------------7-7-7-7-7-7-7---|
A|0---------------3---------------|2---------------5-5-5-5-5-5-5/-|
E|--------------------------------|--------------------------------|
P.M.                                               [...........]		   
AcordesyTabs.com © 2008 Acordes y Tablaturas para guitarra. Tabs and Chords for guitar. Aviso Legal - Contacto
El uso de este sitio está sujeto a la aceptación de los términos y condiciones (26 usuarios online)