tablaturas, partituras y acordes para guitarra
Busca por banda/artista:
 
y/o título de la canción:
A B C D E F G H I J K L M N O P Q R S T U V W X Y Z 0 1 2 3 4 5 6 7 8 9 / Top 100 tabs
Categorías
Usuarios
usuario:
Darse de alta
password:
Artistas más visitados
Publicidad
TOP acordes y tablaturas de Gamma ray


Estás en: Inicio > Letra G > Acordes y tablaturas de Gamma ray > Heaven can wait
Heaven can wait
de Gamma ray
Puntúa este acorde/tab:      
(0.5/5)
Reportar este acorde/tab
  Añadir a tus favoritos
  Imprimir
2 times
----------------------------------------------------------------------
----------------------------------------------------------------------
------------------------------------------------------------------7-(b9)
---------(b9)----7---7-7-7-6-7----------(b9)--11-(b9)7-11-(b9)------7-(b9)11----      
--7------7-----5---5-5-5-4-5----7-----7----(b9)7-5--(b9)7--(b9)11----------- 
--5-----------------------------5------------------------------------- 


vocals
                                                             2 times
--------------------------|----------------------------------------|
--------------------------|----------------------------------------| 
--------------------------|--------------------------------------(b9)|
--------(b9)---11------7--(b9)|-------(b9)---11----(b9)7----------(b9)11-12--| 
--7-----7-----(b9)-----5--7-|--7----7-----(b9)---7-5--(b9)11-12----------| 
--5-----------------------|--5-------------------------------------|


BRIDGE (B)                    (A) (G)               
--------------------------------------------------------------------
--------------------------------------------------------------------
--------------------------------------------------------------------
--------------------------------------------------------------------
-----5-5-4-4----------5-5-4-4----------5-5-4-4----------5-5-4-4-----
-7-7---------5-7--7-7---------5-5--3-3---------5-3--3-3---------5-5-

(D)                                (A)(B)
---------------------------------------------------------------------
---------------------------------------------------------------------
---------------------------------------------------------------------
-----4-4--------------4-4--------------------------------------------
-5-5-----7-7-4-5--5-5-----7-7-4-4----------4-4-7-7-------4-5-7-5-4---
-----------------------------------5-5-7-7-----------5-7-----------5-


--------------------------------------------------------------------
--------------------------------------------------------------------
--------------------------------------------------------------------
--------------------------------------------------------------------
-----5-5-4-4----------5-5-4-4----------5-5-4-4----------5-5-4-4-----
-7-7---------5-7--7-7---------5-5--3-3---------5-3--3-3---------5-5-




-------------------------------------------------------------------
-------------------------------------------------------------------
-------------------------------------------------------------------
-----4-4--------------4-4----------(b9)(b9)(b9)(b9)(b9)(b9)(b9)(b9)(b9)9/21----------
-5-5-----7-7-4-5--5-5-----7-7-4-4--7-7-7-7-7-7-7-7-7-7/1(b9)--------- 
-------------------------------------------------------------------

 
SLOW CHORUS 
---------|-------------|---------|-----------|-------|------------|---
---------|-------------|---------|-----------|-------|------------|---
---------|-------------|---------|-----------|-------|------------|---
---------|-------------|---------|-----------|-7-----|-(7)---6--7-|-(b9)
-7-------|-(7)----6----|-4-------|-(4)---2---|-5-----|-(5)---4--5-|-7-
-5-------|-(5)----4----|-2-------|-(2)---0---|-------|------------|---

               TWICE
--------------------
--------------------
---------------7-(b9)-
--------7-(b9)11------
-7-(b9)11-------------
-------------------- 



FAST CHORUS                                            
-------------------------------------------------------------|
-------------------------------------------------------------|
------(9)-(9)------------(9)-(9)--------(9)-(9)--------------|
------(9)-(9)------------(9)-(9)--------(9)-(9)--------------|
-7-----7---7----6---------7---7-----4----7---7----2----------|
-5--------------4-------------------2-------------0----0-2-4-| 


()2ND GUITAR


SOLO
--------------------------------------------------------
-------------------------------------------------------- 
--------------------------------------------------------
-----------------(b9)------------7-----------7--6--7--(b9)--
-7---------------7-------------5-----------5--4--5--7---
-5------------------------------------------------------



------------------14------------(14)-------------------- 
---------17-17-17----17---------(17)-------------------- 
-------------------------------------------------------- 
-------------------------------------------------------- 
-------------------------------------------------------- 
-------------------------------------------------------- 




--------------------------------------------------- 
--------------------------------------------------- 
--------------------------------------------------- 
-----------------(b9)-------------11--(b9)-7-11--(b9)---
-7---------------7---------------(b9)-7--5--(b9)-7----- 
-5------------------------------------------------- 



------------------------------------------------- 
-----------17-17-17---(17)----------------------- 
-----------18-18-18--1(b9)18--16--14-16-14----------- 
------------------------------------------------- 
------------------------------------------------ 
------------------------------------------------ 



 --------------------------------------------------------
-------------------------------------------------------- 
--------------------------------------------------------
-----------------(b9)------------7-----------7--6--7--(b9)--
-7---------------7-------------5-----------5--4--5--7---
-5------------------------------------------------------



--------------------------------------------------------- 
--------------------------------------------------------- 
----------------14----14-14-16-14------------------------
----------14-16----16------------------------------------ 
--------------------------------------------------------- 
--------------------------------------------------------- 

----------------------------------------------------------------
----------------------------------------------------------------
----------------------------------------------------------------
-----------------(b9)---------------------------------------------
-7---------------7----------5-5-5-5-5-5-5-5-5-7-7-7-7-7-7-7-7-7- 
-5--------------------------------------------------------------



---------------------------------------------------------------------------------------
------------------------------------------------------------------5---5-7-(b9)7—-(b9)10-12-
-------------------------------------------------------4-6-4--6-7---7------------------
---------------------------------------4---4-6-7-6--7---------------------------------
-------------------------------5-4-5-7---7---------------------------------------------
---------------------------------------------------------------------------------------





----------------------------------------------------------------------
----------------------------------------------------------------------
----------------------------------------------------------------------
----------------------------------------7----7--6---4--2---4----------
-7-------7-6---4---2---4--------2-------5----5--4---2--0---2-----7---6
-5-------5-4---2---0---2--------0------------------------------555-444



----------------------------------------------------------------------
-14--17-------------------------------------------14-17-(19)-17(19)17- 
--------16-14-16----14-16-14--------------------14--------------------
-----------------------------16----14-16-14---16----------------------
----------------------------------------------------------------------
----------------------------------------------------------------------



--------------------------------------------------------------
--------------------------------------------------------------
-------------------------------------------------------------(b9)
-----------------------------------------7----6/7-6-7-(b9)-----(b9)
-7-------7-6---4---2---4--------2--------5----4/5-4-5-/7--------
-5-------5-4---2---0---2--------0-------------------------------

 

----------------------------------------|--------------------------
-15-14----------------------------------|-------------------121415/17-
-------16-14-16--14---------------------|--------------111314--------
-------------------171614---------------|---------111214-------------
-------------------------171614---------|----111214------------------
-------------------------------171614
|-1214-----------------------


-----------------------12---------------------------------------------
------------------121415---/1(b9)-17-15-17-------------------------------
-------------111314-------------------16--------(b9)7-6---7-6----6------
--------111214----------------------------------------(b9)----(b9)7--(b9)7-6-
---111214--------------------------------------------------------------
-14-------------------------------------------------------------------


-------------------------------------15-1(b9)15---------15-19-- 
-----------------------------------17--------17----17--------- 
---------------------------------16-------------16------------ 
-(b9)7-6---7-6-------------------17----------------------------- 
-------(b9)----(b9)7---(7)-------1(b9)------------------------------ 
-------------------------------------------------------------- 


-----------------------------------------------------------
-----------------------------------------------------------
-------------------------------------------6----4--3--4--6-
--------(b9)-----7-----6--7--(b9)--------4-----4----2--1--2--4-
-7------7------5-----4--5--7---------2---------------------
-5---------------------------------------------------------


----------------------------------------------------------------------
----------------------------------------------------------------------
----------------------------------------------------------------------
-4-----6------(b9)-----11-----------------------------------------------
-2-----4------7-------(b9)(b9)(b9)(b9)(b9)(b9)(b9)9/16-16-16-16-16-16-16/21-21-21-21 
----------------------------------------------------------------------

-----------------------------------------|
-----------------------------------------|
-----4--4--------4--4--------------------|
-4---4--4----3---4--4------6--6----------|
-2-----------1---------6---6--6------1---|
-----------------------4---------2-4---2-|



------------------------------------------------------------ 
------------------------------------------------------------
------------------------------------------------------------
------------------------------------------------------------
-2-2-2-2-2-2-2-2-2------------------------------------------
-------------------0-0-0-0-0-0-0--2--4--2-2-2-2-2-2-2-2-2-2- 
HEAVEN___________                CAN WAIT_______



------------------------------------------------------------ 
------------------------------------------------------------ 
------------------------------------------------------------ 
------------------------------------------------------------ 
------------------------------------------------------------ 
------------------------------------------------------------		   
AcordesyTabs.com © 2008 Acordes y Tablaturas para guitarra. Tabs and Chords for guitar. Aviso Legal - Contacto
El uso de este sitio está sujeto a la aceptación de los términos y condiciones (33 usuarios online)