tablaturas, partituras y acordes para guitarra
Busca por banda/artista:
 
y/o título de la canción:
A B C D E F G H I J K L M N O P Q R S T U V W X Y Z 0 1 2 3 4 5 6 7 8 9 / Top 100 tabs
Categorías
Usuarios
usuario:
Darse de alta
password:
Artistas más visitados
Publicidad
TOP acordes y tablaturas de Gamma ray


Induction
de Gamma ray
Puntúa este acorde/tab:      
(0.2/5)
Reportar este acorde/tab
  Añadir a tus favoritos
  Imprimir
Tuning: Standard E (EADGBe)

   < fade in
e-----------
B-----------
G--8--------
D--8--------
A--6--------
E-----------


Main Riff (4x)
e--------------
B--------------
G--6-8---------
D--6-8---------
A--4-6---------
E--------------

("Illuminati
You've come to take control
You can take my heartbeat
But you can't break my soul")


  
"We all shall be free"
e---------------------
B---------------------
G----------------8----
D---(b9)-----------8----
A---(b9)-----------6----
E---7-----------------


Play "Main Riff" again (4x)
("Illuminati
You'll never take control
Your new world order
Will lead to none at all")


"We all stand before you as one   Heaven is for"
e-----------------------------------------------
B-----------------------------------------------
G-----------------------------------------------
D---(b9)----------------------4-------------------
A---(b9)----------------------4-------------------
E---7-----------------------2-------------------


   "everyone  To be free from the dark"
e---------------------------------------
B---------------------------------------
G---6---------------4-------------------
D---6---------------4-------------------
A---4---------------2-------------------
E---------------------------------------		   
AcordesyTabs.com © 2008 Acordes y Tablaturas para guitarra. Tabs and Chords for guitar. Aviso Legal - Contacto
El uso de este sitio está sujeto a la aceptación de los términos y condiciones (39 usuarios online)