tablaturas, partituras y acordes para guitarra
Busca por banda/artista:
 
y/o título de la canción:
A B C D E F G H I J K L M N O P Q R S T U V W X Y Z 0 1 2 3 4 5 6 7 8 9 / Top 100 tabs
Categorías
Usuarios
usuario:
Darse de alta
password:
Artistas más visitados
Publicidad
TOP acordes y tablaturas de Fall out boy


Estás en: Inicio > Letra F > Acordes y tablaturas de Fall out boy > Carpal tunnel of love
Carpal tunnel of love
de Fall out boy
Puntúa este acorde/tab:      
(0.4/5)
Reportar este acorde/tab
  Añadir a tus favoritos
  Imprimir
Dropped D Tunning

Guitar 1

e|-------------------------------------------------------------------------|
B|-------------------------------------------------------------------------|
G|--xx-7-7-xx-7-7-xx---xx-7-xx-7-7-------7-7-xx-7-7-xx---xx-7-xx-7-7-------|
D|--xx-x-x-xx-x-x-xx-8-xx-x-xx-x-x-8-8-x-x-xx-x-x-xx-8-xx-x-xx-x-x-8-8-|
A|--xx-5-5-xx-5-5-xx-8-xx-5-xx-5-5-8-8-5-5-xx-5-5-xx-8-xx-5-xx-5-5-8-8-|
D|-------------------8-------------8-8---------------8-------------8-8-|

                      (Play until other guitar comes in)

e|--------------------|
B|--------------------|
G|--7-7-xx-7-7-xx-7-xx|   4 times
D|--x-x-xx-x-x-xx-x-xx|
A|--5-5-xx-5-5-xx-5-xx|
D|--------------------|

Guitar 2

e|-------------------------------------------------------------|
B|-------------------------------------------------------------|
G|-------------------------------------------------------------|
D|--00--7-88--7-55--7-88--88-1010-1212--7-88--7-55--7-88--8810-|
A|--00--7-88--7-55--7-88--88-1010-1212--7-88--7-55--7-88--8810-|
D|--00--7-88--7-55--7-88--88-1010-1212--7-88--7-55--7-88--8810-|

e|------------------------------------|
B|------------------------------------|
G|------------------------------------|
D|--88888888-77777777-000-000-033-377-|
A|--88888888-77777777-000-000-033-377-|
D|--88888888-77777777-000-000-033-377-|

e|-----------------------------------|
B|-----------------------------------|
G|-----------------------------------|
D|--88888888-7777777-555-55533332222-|
A|--88888888-7777777-555-55533333333-|
D|--88888888-7777777-555-55533332222-|

Guitar 1

e|---------------------------------------------------|
B|---------------------------------------------------|
G|--1010101010101010-9999999(b9)101010-101010-99(b9)9910-|
D|--x-x-x-x-x-x-x-x--xxxxxxxx-x-x-x--x-x-x--xxx-xxx--|
A|--8-8-8-8-8-8-8-8--77777777-8-8-8--8-8-8--777-778--|
D|---------------------------------------------------|

e|-----------------------------------------------------------|
B|-----------------------------------------------------------|
G|--1010101010101010-9999999(b9)101010-101010-1212121210101010-|
D|--x-x-x-x-x-x-x-x--xxxxxxxx-x-x-x--x-x-x--x-x-x-x-x-x-x-x--|
A|--8-8-8-8-8-8-8-8--77777777-8-8-8--8-8-8--1010101010101010-|
D|-----------------------------------------------------------|

Guitar 2 Chorus

e|------------------------------------|
B|------------------------------------|
G|------------------------------------|
D|--00000000333333338888888855557788--|
A|--00000000333333338888888855557788--|
D|--00000000333333338888888855557788--|

e|-------------------------------------------------------------------|
B|-------------------------------------------------------------------|
G|-7777777710101010101010107777777712121212121212121010101010101010--|
D|-xxxxxxxxx-x-x-x-x-x-x-x-xxxxxxxxx-x-x-x-x-x-x-x-x-x-x-x-x-x-x-x---|
A|-555555558-8-8-8-8-8-8-8-5555555510101010101010108-8-8-8-8-8-8-8---|
D|-------------------------------------------------------------------|

               Each times 2

Repeat intro

e|-------------------------------------------------------------|
B|-------------------------------------------------------------|
G|-------------------------------------------------------------|
D|--00--7-88--7-55--7-88--88-1010-1212--7-88--7-55--7-88--8810-|
A|--00--7-88--7-55--7-88--88-1010-1212--7-88--7-55--7-88--8810-|
D|--00--7-88--7-55--7-88--88-1010-1212--7-88--7-55--7-88--8810-|

e|------------------------------------|
B|------------------------------------|
G|------------------------------------|
D|--88888888-77777777-000-000-033-377-|
A|--88888888-77777777-000-000-033-377-|
D|--88888888-77777777-000-000-033-377-|

e|-----------------------|
B|-----------------------|
G|-----------------------|
D|--88888888-77777777-5-|
A|--88888888-77777777-5-|
D|--88888888-77777777-5-|

e|--------------------|
B|--------------------|
G|--7-7-xx-7-7-xx-7-xx|   4 times
D|--x-x-xx-x-x-xx-x-xx|
A|--5-5-xx-5-5-xx-5-xx|
D|--------------------|

e|---------------------------------------------------|
B|---------------------------------------------------|
G|--1010101010101010-9999999(b9)101010-101010-99(b9)9910-|
D|--x-x-x-x-x-x-x-x--xxxxxxxx-x-x-x--x-x-x--xxx-xxx--|
A|--8-8-8-8-8-8-8-8--77777777-8-8-8--8-8-8--777-778--|
D|---------------------------------------------------|

e|--------------------------------|
B|--------------------------------|
G|--1010101010101010-9999999(b9)10-|
D|--x-x-x-x-x-x-x-x--xxxxxxxx-x---|
A|--8-8-8-8-8-8-8-8--77777777-8--|
D|--------------------------------|

Chorus 1 Time

Play the last measure like this though!

e|---------------|
B|---------------|
G|---------------|
D|--555555557733-|
A|--555555557733-|
D|--555555557733-|

e|----------------|
B|----------------|
G|----------------|
D|--0~-----0~-----|
A|--0~-----0~-----|
D|--0~-----0~-----|

Guitar 2

e|--------------------|
B|--------------------|
G|--77-77-77-77-77-5~-|
D|--77-77-77-77-77-5~-|
A|--55-55-55-55-55-3~-|  x2
D|--------------------|

e|-----------------------------------------------|
B|-----------------------------------------------|
G|--77-77-7(b9)9(b9)999(b9)1010101010-12-1212-12121212-|
D|--77-77-7(b9)9(b9)999(b9)1010101010-12-1212-12121212-| x2
A|--55-55-57-77-7777-8-8-8-8-8--10-1010-10101010-|
D|-----------------------------------------------|

2nd chorus and end on.

e|-----------------------------------------------|
B|-----------------------------------------------|
G|-----------------------------------------------|
D|--0~-------------------------------------------|
A|--0~-------------------------------------------|
D|--0~-------------------------------------------|		   
AcordesyTabs.com © 2008 Acordes y Tablaturas para guitarra. Tabs and Chords for guitar. Aviso Legal - Contacto
El uso de este sitio está sujeto a la aceptación de los términos y condiciones (24 usuarios online)