tablaturas, partituras y acordes para guitarra
Busca por banda/artista:
 
y/o título de la canción:
A B C D E F G H I J K L M N O P Q R S T U V W X Y Z 0 1 2 3 4 5 6 7 8 9 / Top 100 tabs
Categorías
Usuarios
usuario:
Darse de alta
password:
Artistas más visitados
Publicidad
TOP acordes y tablaturas de Fall out boy


Estás en: Inicio > Letra F > Acordes y tablaturas de Fall out boy > This ain't a scene, it's an arms race
This ain't a scene, it's an arms race
de Fall out boy
Puntúa este acorde/tab:      
(0.5/5)
Reportar este acorde/tab
  Añadir a tus favoritos
  Imprimir
Veres 1 "I m an arms dealer..."
Guitar 2, if u want to play something whlie bass
e|--------------------------|
B|--------------------------|
G|--------------------------|    3x
D|--------------------------|
A|--------------------------|
E|-5x15--0x15---------------|

Veres 1
Guitar 1 "as long as the room keeps singing..."
e|--------------------------|-------------------------|
B|--------------------------|-------------------------|
G|--2-4-5-4-254--2-4-5-4-254|-------------------------|      4x
D|--------------------------|-0-2-3-2-023--0-2-3-023--|
A|--------------------------|-------------------------|
E|--------------------------|-------------------------|



Chours
Guitar 1&2
e|----------------------------|
B|----------------------------|
D|---------------7------1-----|       x2
G|---7-----3-----7x8----0x8---|
A|---7x8---3x8---5------2-----|
E|---5-----1------------------|


Pre Veres
Guitar 1
e|---------------|
B|---------------|
G|--2-4-5-4-254--|      x1                 
D|---------------|
A|---------------|
E|---------------|


Repeat Veres 1

Repeat Chours

Brige
Guitar 2     first part              second part
e|-1----------------------------|-----------------------------|
B|-3x8--------------------------|-----------------------------|
G|-2----------------------------|-----------------------------|
D|------------------7-----------|-2--------------7------------|
A|------------------7x8---------|-2x8------------7x8----------|
E|------------------5-----------|-o--------------5------------|


   first part                      second part
e|------------------------------|-----------------------------|
B|--6x8-------------------------|--0x8------------------------|
G|-----------------2-4-5-4-245--|---------------555-4h5-7-----|      
D|------------------------------|-----------------------------|
A|------------------------------|-----------------------------|
E|------------------------------|-----------------------------|
               ***THEN REPEAT FIRST PART ONCE*** 

Second Brige Part
Guitar 1    "this ain't a scene it's a god dam..."
e|--------------------------|-------------------------|
B|--------------------------|-------------------------|
G|--2-4-5-4-254--2-4-5-4-254|-------------------------|      x3
D|--------------------------|-0-2-3-2-023--0-2-3-023--|
A|--------------------------|-------------------------|
E|--------------------------|-------------------------|



Chours
Guitar 1&2
e|----------------------------|
B|----------------------------|
D|---------------7------1-----|       x2
G|---7-----3-----7x8----0x8---|
A|---7x8---3x8---5------2-----|
E|---5-----1------------------|		   
AcordesyTabs.com © 2008 Acordes y Tablaturas para guitarra. Tabs and Chords for guitar. Aviso Legal - Contacto
El uso de este sitio está sujeto a la aceptación de los términos y condiciones (38 usuarios online)