tablaturas, partituras y acordes para guitarra
Busca por banda/artista:
 
y/o título de la canción:
A B C D E F G H I J K L M N O P Q R S T U V W X Y Z 0 1 2 3 4 5 6 7 8 9 / Top 100 tabs
Categorías
Usuarios
usuario:
Darse de alta
password:
Artistas más visitados
Publicidad
TOP acordes y tablaturas de Dragonforce


Estás en: Inicio > Letra D > Acordes y tablaturas de Dragonforce > Disciples of babylon
Disciples of babylon
de Dragonforce
Puntúa este acorde/tab:      
(0.4/5)
Reportar este acorde/tab
  Añadir a tus favoritos
  Imprimir
Tuning: Standard

Intro
e|----------------------------------------------------------------------------
B|----------------------------------------------------------------------------
G|----------------------------------------------------------------------------   x4
D|--7-----------------------3-----------------------5-------------------------
A|--7-----------5-----------3-----------3---------3-5-----------5-----------5-
E|--5-----8-5-8---8-5-3-1---1-1-1-1-1-1-1-1-1-1-1-1-3-3-3-3-3-3-3-3-3-3-3-3-3-
    x16                       PM ......   PM ....     PM ......   PM ......

e|----------------------------------------------------------------------------
B|----------------------------------------------------------------------------
G|----------------------------------------------------------------------------
D|--3---------------------5----------------------7----------------------------
A|--3---------3---------3-5---------5---------5--7----------------------------
E|--1-1-1-1-1-1-1-1-1-1-1-3-3-3-3-3-3-3-3-3-3-3--5----------------------------
      PM ....   PM ....     PM ....   PM ....    x32

e|----------------------------------------------------------------------------
B|----------------------------------------------------------------------------
G|----------------------------------------------------------------------------
D|--3---------------------5----------------------5-5-5-5-5-5-5-5-5------------
A|--3---------3---------3-5---------5---------5--5-5-5-5-5-5-5-5-5------------
E|--1-1-1-1-1-1-1-1-1-1-1-3-3-3-3-3-3-3-3-3-3-3--3-3-3-3-3-3-3-3-3------------
      PM ....   PM ....     PM ....   PM ....    PM ..............

Verse
e|----------------------------------------------------------------------------
B|----------------------------------------------------------------------------
G|----------------------------------------------------------------------------
D|--7--------7-----------7--------7--------5b---------------------------------
A|--7--------7-----------7--------7-------------------------------------------
E|--5-5-5-5--5-5-5-5--5--5-5-5-5--5-5-5-5-------------------------------------
    PM ..................................                                        x2

e|----------------------------------------------------------------------------
B|----------------------------------------------------------------------------
G|----------------------------------------------------------------------------
D|--7--------7-----------7--------7-------------------------------------------
A|--7--------7-----------7--------7-------------------------------------------
E|--5-5-5-5--5-5-5-5--5--5-5-5-5--5-5-5-5--3b---------------------------------
    PM ..................................

Little bit after verse
e|----------------------------------------------------------------------------
B|----------------------------------------------------------------------------
G|----------------------------------------------------------------------------
D|--3-------------5-------------------------------------------------------------
A|--3-------------5-------------------------------------------------------------
E|--1-------------3-------------------------------------------------------------

Repeat verse, then:

e|----------------------------------------------------------------------------
B|----------------------------------------------------------------------------
G|----------------------------------------------------------------------------
D|--7------3------5------12--10--9/10(b9)---7------3------5--------------------
A|--7------3------5------12--10--9/10(b9)---7------3------5--------------------
E|--5------1------3------10--8---7/8-----5------1------3--------------------

e|----------------------------------------------------------------------------
B|----------------------------------------------------------------------------
G|----------------------------------------------------------------------------
D|--7------3------5------12--10--9/10(b9)---7------3------5-5-5-5-5-5-5-5-5----
A|--7------3------5------12--10--9/10(b9)---7------3------5-5-5-5-5-5-5-5-5----
E|--5------1------3------10--8---7/8-----5------1------3-3-3-3-3-3-3-3-3----
                                                         PM ..............

Back to verse, repeat up to this point

Pre-chorus
e|----------------------------------------------------------------------------
B|----------------------------------------------------------------------------
G|--------------------------------5-------------------------------------------
D|--7-----3-----7-----2-----3-----5-----5-------------------------------------
A|--7-----3-----7-----2-----3-----3-----5-------------------------------------
E|--5-----1-----5-----0-----1-----------3-------------------------------------
                                        x32

Chorus
e|----------------------------------------------------------------------------
B|----------------------------------------------------------------------------
G|----------------------------------------------------------------------------
D|--12---------------7-------------------------------------------------------- x3
A|--12---------------7--------------------------------------------------------
E|--10---------------5--------------------------------------------------------
    x16              x16

e|----------------------------------------------------------------------------
B|----------------------------------------------------------------------------
G|----------------------------------------------------------------------------
D|--3-------------------------------------------------------------------------
A|--3-------------------------------------------------------------------------
E|--1-------------------------------------------------------------------------
    x32		   
AcordesyTabs.com © 2008 Acordes y Tablaturas para guitarra. Tabs and Chords for guitar. Aviso Legal - Contacto
El uso de este sitio está sujeto a la aceptación de los términos y condiciones (25 usuarios online)