tablaturas, partituras y acordes para guitarra
Busca por banda/artista:
 
y/o título de la canción:
A B C D E F G H I J K L M N O P Q R S T U V W X Y Z 0 1 2 3 4 5 6 7 8 9 / Top 100 tabs
Categorías
Usuarios
usuario:
Darse de alta
password:
Artistas más visitados
Publicidad
TOP acordes y tablaturas de Fall out boy


Estás en: Inicio > Letra F > Acordes y tablaturas de Fall out boy > 7 minutes in heaven (atavan halen)
7 minutes in heaven (atavan halen)
de Fall out boy
Puntúa este acorde/tab:      
(0.5/5)
Reportar este acorde/tab
  Añadir a tus favoritos
  Imprimir
FOB ROCK'S

*: palm mute
h: hammer on 
/: slide
: slide


Intro Pt. 1
e|----------------------------------------------------|
B|----------------------------------------------------|
G|-(b9)9(b9)8-88-6-66-(b9)9(b9)8-88-6-------------------------|
D|-(b9)9(b9)(b9)9(b9)(b9)9(b9)(b9)9(b9)(b9)9(b9)(b9)------------------------|x2
A|----------------------------------------------------|
E|----------------------------------------------------|
     **   **   **   **   **


Intro Pt. 2 Lead
e|----------------------------------------------------|
B|----------------------------------------------------|
G|-1111111--88--6666--44--1111111--8888--66--6/8----|
D|-x-x-x-x--xx--xxxx--xx--x-x-x-x--xxxx--xx--x/xx----|x2
A|-(b9)(b9)(b9)(b9)-66--4444--22--(b9)(b9)(b9)(b9)-6666--44--4/6----|
E|----------------------------------------------------|


Intro Pt. 2 Rhythm 
e|----------------------------------------------------|
B|----------------------------------------------------|
G|--------------44------------------------------------|
D|-6666-22-4444-44-6666-2222-44444444-----------------|x2
A|-6666-22-4444-22-6666-2222-44444444-----------------|
E|-4444-00-2222----4444-0000-22222222-----------------|


Verse 1 Rhythm 
e|----------------------------------------------------|
B|----------------------------------------------------|
G|------------44-4------------------44-4--------------|
D|-66-6-------44-4-x4----22-2-------44-4-x4-----------|x2
A|-66-6-x4----22-2-------22-2-x4----22-2--------------|
E|-44-4------------------00-0-------------------------|              
   **         **         **         **


Verse 1 Lead
e|----------------------------------------------------|
B|----------------------------------------------------|
G|-(b9)9(b9)8-88-6-66-(b9)9(b9)8-88-6-------------------------|
D|-(b9)9(b9)(b9)9(b9)(b9)9(b9)(b9)9(b9)(b9)9(b9)(b9)------------------------|
A|----------------------------------------------------|
E|----------------------------------------------------|
     **   **   **   **   **


Pre Chorus 
e|----------------------------------------------------|
B|----------------------------------------------------|
G|--------------44------------------------------------|
D|-6666-22-4444-44-6666-2222-44444444-----------------|x2
A|-6666-22-4444-22-6666-2222-44444444-----------------|
E|-4444-00-2222----4444-0000-22222222-----------------|


Chorus 
e|----------------------------------------------------|
B|----------------------------------------------------|
G|-44-------------------------------------------------|
D|-44-4-22-4-66-4-22-4--------------------------------|x4
A|-22-4-22-4-66-4-22-4--------------------------------|
E|----2-00-2-44-2-00-2--------------------------------|


Verse 2 Lead
e|----------------------------------------------------|
B|----------------------------------------------------|
G|-(b9)9(b9)8-88-6-66-(b9)9(b9)8-88-6-------------------------|
D|-(b9)9(b9)(b9)9(b9)(b9)9(b9)(b9)9(b9)(b9)9(b9)(b9)------------------------|x8
A|----------------------------------------------------|
E|----------------------------------------------------|
     **   **   **   **   **


Verse 2 Rhythm "I'm having another episode..."
e|----------------------------------------------------|
B|----------------------------------------------------|
G|------------44-4------------------4444444444444444--|
D|-66-6-------44-4-x4----22-2-------4444444444444444--|
A|-66-6-x4----22-2-------22-2-x4----2222222222222222--|
E|-44-4------------------00-0-------------------------| 
   **         **         **         ****************      


Bridge Rhythm "Da Da Da..."
e|----------------------------------------------------|
B|----------------------------------------------------|
G|----------6-----------------4-----------------------|
D|-6--------6-x16----2--------4-x16-------------------|x2
A|-6-x16----4--------2-x16----2-----------------------|
E|-4-----------------0--------------------------------|              
   *        *        *        * 


Bridge Lead
e|----------------------------------------------------|
B|----------------------------------------------------|
G|-(b9)9(b9)8-88-6-66-(b9)9(b9)8-88-6-------------------------|
D|-(b9)9(b9)(b9)9(b9)(b9)9(b9)(b9)9(b9)(b9)9(b9)(b9)------------------------|x4
A|----------------------------------------------------|
E|----------------------------------------------------|
     **   **   **   **   ** 


Bridge Cont. "I keep telling..."
e|----------------------------------------------------|
B|----------------------------------------------------|
G|----------------------------------------------------|
D|-66----44----6666-2222-4444-------------------------|
A|-66----44----6666-2222-4444-------------------------|
E|-44----22----4444-0000-2222-------------------------|


Solo
e|-----------------------------------------------------------------|
B|-----------------------------------------------------------------|
G|-----------------------------------------------------------------|
D|-11-11h13-11(b9)11h13-11(b9)11h13-11(b9)----11-11h13-11(b9)11h13-11--|x2
A|-------------------------------------(b9)--------------------------|
E|-----------------------------------------------------------------|


Ending (Acoustic)
e|----------------------------------------------------|
B|----------------------------------------------------|
G|-44-------------------44----------------------------|
D|-44-4-22-4-66-4-22-4--44-4-22-4-66-4-2--------------|
A|-22-4-22-4-66-4-22-4--22-4-22-4-66-4-2--------------|
E|----2-00-2-44-2-00-2-----2-00-2-44-2-0--------------|


Order
Intro pt. 1 
Intro pt. 2 
Verse 1 
Pre Chorus
Chorus 
Intro pt. 2
Verse 2 
Pre Chorus 
Chorus 
Bridge 
Bridge Cont.
Pre Chorus
Pre Chorus w/ Solo
Ending



I'm sleeping my way out of this one
With anyone who will lie down
I'll be stuck fixated on one star
When the world is crashing down

I keep telling myself
I keep telling myself
I'm not the desperate type
But you've got me looking through the blinds
I keep telling myself
I keep telling myself
I'm not the desperate type

Sitting out dances on the wall
Trying to forget everything that isn't you
I'm not going home alone
'Cause I don't do too well
Sitting out dances on the wall
Trying to forget everything that isn't you
I'm not going home alone
'Cause I don't do too well on my own

The only thing worse than not knowing
Is you thinking that I don't know
I'm having another episode
I just need a stronger dose

I keep telling myself
I keep telling myself
I'm not the desperate type
But you've got me looking through the blinds
I keep telling myself
I keep telling myself
I'm not the desperate type

Sitting out dances on the wall
Trying to forget everything that isn't you
I'm not going home alone
'Cause I don't do too well
Sitting out dances on the wall
Trying to forget everything that isn't you
I'm not going home alone
'Cause I don't do too well on my own

I keep telling myself
I keep telling myself
I'm not the desperate type
But you've got me looking through the blinds

(I keep telling myself
I keep telling myself
I'm not the desperate type)

Sitting out dances on the wall
Trying to forget everything that isn't you
I'm not going home alone
'Cause I don't do too well on my own		   
AcordesyTabs.com © 2008 Acordes y Tablaturas para guitarra. Tabs and Chords for guitar. Aviso Legal - Contacto
El uso de este sitio está sujeto a la aceptación de los términos y condiciones (28 usuarios online)