tablaturas, partituras y acordes para guitarra
Busca por banda/artista:
 
y/o título de la canción:
A B C D E F G H I J K L M N O P Q R S T U V W X Y Z 0 1 2 3 4 5 6 7 8 9 / Top 100 tabs
Categorías
Usuarios
usuario:
Darse de alta
password:
Artistas más visitados
Publicidad
TOP acordes y tablaturas de Angra


Estás en: Inicio > Letra A > Acordes y tablaturas de Angra > Unfinished allegro
Unfinished allegro
de Angra
Puntúa este acorde/tab:      
(0.7/5)
Reportar este acorde/tab
  Añadir a tus favoritos
  Imprimir
D#||---------------|----------------|---------------|-----------------|
A#||--1------------|--3--------4----|---------------|-----------------|
F#||---------------|----------------|--5------------|--3----0----1----|
C#||---------------|----------------|---------------|-----------------|
G#||---------------|----------------|---------------|-----------------|
D#||---------------|----------------|---------------|-----------------|


                                                                              
----------------|---------------|--------------|--------------|--------------|
----------------|---------------|--------------|--------------|--------------|
----------------|--0------------|--------------|--------------|--------------|
--1--------0----|---------------|--------------|--------------|--------------|
----------------|---------------|--------------|--------------|--------------|
----------------|---------------|--------------|--------------|--------------|

                          
--------------|--------------|--------------|--15--14--15------13--15--|
--------------|--------------|--------------|--16--15--16--16--15--16--|
--------------|--------------|--------------|--------------17----------|
--------------|--------------|--------------|--------------------------|
--------------|--------------|--------------|--------------------------|
--------------|--------------|--------------|--------------------------|


                                                      
--16--15--16--1(b9)-20--22--|--------------------------|
--18--17--18--------------|--20--1(b9)-20------18--20--|
--------------1(b9)-20--22--|--20--1(b9)-20--20--1(b9)-20--|
--------------------------|--------------22----------|
--------------------------|--------------------------|
--------------------------|--------------------------|


                                                      
--------------1(b9)-20--22--|--------------------------|
--21--20--21--------------|--20--1(b9)-20------18--20--|
--22--21--22--1(b9)-20--22--|--20--1(b9)-20--20--1(b9)-20--|
--------------------------|--------------22----------|
--------------------------|--------------------------|
--------------------------|--------------------------|


                                                      
--------------22--20--1(b9)-|--------------------------|
--21--20--21--------------|--20--1(b9)-20------18--20--|
--22--21--22--22--20--1(b9)-|--20--1(b9)-20--20--1(b9)-20--|
--------------------------|--------------22----------|
--------------------------|--------------------------|
--------------------------|--------------------------|


                                                      
--------------22--20--1(b9)-|--18--17--18----------18--|
--21--20--21--------------|--20--1(b9)-20--20--21--20--|
--22--21--22--22--20--1(b9)-|--------------20--22------|
--------------------------|--------------------------|
--------------------------|--------------------------|
--------------------------|--------------------------|


                                                                               
--20--22--23--22--23--20--|--18--17--18--18--1(b9)-18--|--18--------------------|
--21--23--25--24--25--21--|--21--20--22--18--21--18--|--20--20----20--21--20--|
--------------------------|--------------------------|------20----1(b9)-22--1(b9)-|
--------------------------|--------------------------|------------------------|
--------------------------|--------------------------|------------------------|
--------------------------|--------------------------|------------------------|


                                                      
------16--15--13--13--15--|--15--14--15------13--15--|
--18--18--16--15--15--15--|--16--15--16--16--15--16--|
--1(b9)---------------------|--------------17----------|
--------------------------|--------------------------|
--------------------------|--------------------------|
--------------------------|--------------------------|


                                                      
--15--15--15--15--20--1(b9)-|--------------------------|
--18--17--18--18----------|--20--1(b9)-20------18--20--|
------------------20--1(b9)-|--20--1(b9)-20--20--1(b9)-20--|
--------------------------|--------------22----------|
--------------------------|--------------------------|
--------------------------|--------------------------|


                                                      
--------------22--20--1(b9)-|--18--23--20--23--20--21--|
--20--20--20----------18--|--20--23--21--23--21--23--|
--22--1(b9)-22--22--20------|--------------------------|
--------------------------|--------------------------|
--------------------------|--------------------------|
--------------------------|--------------------------|


                                                      
--21--23--20--23--20--23--|--23--25--22--25--25--27--|
--23--25--21--25--21--21--|--25--27--23--27--27--28--|
--------------------------|--------------------------|
--------------------------|--------------------------|
--------------------------|--------------------------|
--------------------------|--------------------------|


                                                      
--28----------------------|------16--15--------------|
--30--20------21--21--20--|--18--18--18--18--18--20--|
------22--22--22--22--22--|--1(b9)---------1(b9)-1(b9)-22--|
----------24--------------|--------------------------|
--------------------------|--------------------------|
--------------------------|--------------------------|


                                                      
--18--23--20--23--20--21--|--21--23--20--23--20--23--|
--20--23--21--23--21--23--|--23--25--21--25--21--25--|
--------------------------|--------------------------|
--------------------------|--------------------------|
--------------------------|--------------------------|
--------------------------|--------------------------|


                                                      
--23--25--22--25--22--25--|--25--27--23--27--23--25--|
--25--27--23--27--23--27--|--27--28--25--28--25--27--|
--------------------------|--------------------------|
--------------------------|--------------------------|
--------------------------|--------------------------|
--------------------------|--------------------------|


                                                                       
--25--27--23--27--27--27--|--27------27--27----|----27--27----27--27--|
--27--28--25--28--28------|--------------------|----------------------|
--------------------------|--------------------|----------------------|
--------------------------|--------------------|----------------------|
--------------------------|--------------------|----------------------|
--------------------------|--------------------|----------------------|


                                                
--27--------|----------------------------------|
------------|----------------------------------|
------------|----------------------------------|
------------|----------21--23----------21--1(b9)-|
------------|--24------------------------------|
------------|----------------------------------|


                                                                         
----------------------------------|--------------------|----------------|
----------------------------------|--------------13----|----------------|
----------16--18----------16--14--|--15-------------15-|--14------------|
--1(b9)-----------------------------|--------------------|----------------|
----------------------------------|--------------------|----------------|
----------------------------------|--------------------|----------------|		   
AcordesyTabs.com © 2008 Acordes y Tablaturas para guitarra. Tabs and Chords for guitar. Aviso Legal - Contacto
El uso de este sitio está sujeto a la aceptación de los términos y condiciones (28 usuarios online)