tablaturas, partituras y acordes para guitarra
Busca por banda/artista:
 
y/o título de la canción:
A B C D E F G H I J K L M N O P Q R S T U V W X Y Z 0 1 2 3 4 5 6 7 8 9 / Top 100 tabs
Categorías
Usuarios
usuario:
Darse de alta
password:
Artistas más visitados
Publicidad
TOP acordes y tablaturas de Los Bunkers


Y Volvere
de Los Bunkers
Puntúa este acorde/tab:      
(0.7/5)
Reportar este acorde/tab
  Añadir a tus favoritos
  Imprimir
Version en VIVO



0:51
guitara
e-------8-----------I
B---10-----10-------I
G--------------10---I
D-------------------I
A-------------------I
E-------------------I

0:54
organo
e------------8-7-8-7--I
B-----8-10------------I
G--10-----------------I
D---------------------I
A---------------------I
E---------------------I

0:58
guitara
e----------7----------------I
B---8--10-----10--8---------I
G--------------------7--9---I
D---------------------------I
A---------------------------I
E---------------------------I

1:01
organo
e---------7-5-7-5------I
B----6-8---------------I
G--9-------------------I
D----------------------I
A----------------------I
E----------------------I

1:04
guitara
e---------5--------------I
B---6--8-----8--6--------I
G------------------5--7--I
D------------------------I
A------------------------I
E------------------------I

1:07
organo
e------------------------I
B---------10-9-10-9------I
G--7-9-10----------------I
D------------------------I
A------------------------I
E------------------------I

1:11
guitara
e-----------------------------I
B-----------------------------I
G---8/10--9--7------7--9------I
D---------------10------------I
A-----------------------------I
E-----------------------------I

1:17
guitara
e-------8-----------I
B---10-----10-------I
G--------------10---I
D-------------------I
A-------------------I
E-------------------I

1:20
organo
e------------8-7-8-7--I
B-----8-10------------I
G--10-----------------I
D---------------------I
A---------------------I
E---------------------I

1:23
guitara
e----------7----------------I
B---8--10-----10--8---------I
G--------------------7--9---I
D---------------------------I
A---------------------------I
E---------------------------I

1:26
organo
e---------7-5-7-5------I
B----6-8---------------I
G--9-------------------I
D----------------------I
A----------------------I
E----------------------I

1:30
guitara
e---------5--------------I
B---6--8-----8--6--------I
G------------------5--7--I
D------------------------I
A------------------------I
E------------------------I

1:32
organo
e------------------------I
B---------10-9-10-9------I
G--7-9-10----------------I
D------------------------I
A------------------------I
E------------------------I

1:36
guitara
e-----------------------------I
B-----------------------------I
G---8/10--9--7------7--9------I
D---------------10------------I
A-----------------------------I
E-----------------------------I


Amor, adios

 1:45                        1:52
guitara
e---------5--8--7h8p7h8-7--I------------7--5h7p5h7-5---I
B---6--8-------------------I---5--6--8-----------------I
G--------------------------I---------------------------I
D--------------------------I---------------------------I
A--------------------------I---------------------------I
E--------------------------I---------------------------I


 1:58                            2:04
guitara
e------------------------------I---------------------------------------I
B-------------10--9h10p9h10-9--I---------------------------------------I
G---7--9--10-------------------I--8/10-9-7-9-7-7-----------------------I
D------------------------------I-------------------10-10--9--9--7--7---I
A------------------------------I---------------------------------------I
E------------------------------I---------------------------------------I

2:11                   2:17                2:24
organo
e----------8-7-8-7---I----------7-5-7-5---I---------------------I
B-----8-10-----------I-----6-8------------I---------10-9-10-9---I
G--10----------------I--9-----------------I--7-9-10-------------I
D--------------------I--------------------I---------------------I
A--------------------I--------------------I---------------------I
E--------------------I--------------------I---------------------I


3:27
guitara
e-------8-----------I
B---10-----10-------I
G--------------10---I
D-------------------I
A-------------------I
E-------------------I

3:31
organo
e------------8-7-8-7--I
B-----8-10------------I
G--10-----------------I
D---------------------I
A---------------------I
E---------------------I

3:34
guitara
e----------7----------------I
B---8--10-----10--8---------I
G--------------------7--9---I
D---------------------------I
A---------------------------I
E---------------------------I

3:37
organo
e---------7-5-7-5------I
B----6-8---------------I
G--9-------------------I
D----------------------I
A----------------------I
E----------------------I

3:41
guitara
e---------5--------------I
B---6--8-----8--6--------I
G------------------5--7--I
D------------------------I
A------------------------I
E------------------------I

3:44
organo
e------------------------I
B---------10-9-10-9------I
G--7-9-10----------------I
D------------------------I
A------------------------I
E------------------------I

3:47
guitara
e-----------------------------I
B-----------------------------I
G---8/10--9--7------7--9------I
D---------------10------------I
A-----------------------------I
E-----------------------------I

4:50                  4:57                 5:03
organo
e----------8-7-8-7---I----------7-5-7-5---I---------------------I
B-----8-10-----------I-----6-8------------I---------10-9-10-9---I
G--10----------------I--9-----------------I--7-9-10-------------I
D--------------------I--------------------I---------------------I
A--------------------I--------------------I---------------------I
E--------------------I--------------------I---------------------I

5:16
guitara
e-------8-----------I
B---10-----10-------I
G--------------10---I
D-------------------I
A-------------------I
E-------------------I

5:19
organo
e------------8-7-8-7--I
B-----8-10------------I
G--10-----------------I
D---------------------I
A---------------------I
E---------------------I

5:23
guitara
e----------7----------------I
B---8--10-----10--8---------I
G--------------------7--9---I
D---------------------------I
A---------------------------I
E---------------------------I

5:26
organo
e---------7-5-7-5------I
B----6-8---------------I
G--9-------------------I
D----------------------I
A----------------------I
E----------------------I

5:29
guitara
e---------5--------------I
B---6--8-----8--6--------I
G------------------5--7--I
D------------------------I
A------------------------I
E------------------------I

5:32
organo
e------------------------I
B---------10-9-10-9------I
G--7-9-10----------------I
D------------------------I
A------------------------I
E------------------------I

5:36
guitara
e-----------------------------I
B-----------------------------I
G---8/10--9--7------7--9------I
D---------------10------------I
A-----------------------------I
E-----------------------------I


pues, no les puse las letras, porque no queria que se confundan,
pero espero que les guste y si tienen una pregunta oh coreccion
manden un email a manuel_luna_aguilar@yahoo.com ......gracias
		   
AcordesyTabs.com © 2008 Acordes y Tablaturas para guitarra. Tabs and Chords for guitar. Aviso Legal - Contacto
El uso de este sitio está sujeto a la aceptación de los términos y condiciones (24 usuarios online)