tablaturas, partituras y acordes para guitarra
Busca por banda/artista:
 
y/o título de la canción:
A B C D E F G H I J K L M N O P Q R S T U V W X Y Z 0 1 2 3 4 5 6 7 8 9 / Top 100 tabs
Categorías
Usuarios
usuario:
Darse de alta
password:
Artistas más visitados
Publicidad
TOP acordes y tablaturas de Genesis


Entangled
de Genesis
Puntúa este acorde/tab:      
(0.5/5)
Reportar este acorde/tab
  Añadir a tus favoritos
  Imprimir
[Riff 1]
     D
e | ---2----------0---------2-----------0---------- | 
B | ---------2h3---------2---------2h3---------2--- | 
G | ----------------------------------------------- | 
D | ------0----------0---------0-----------0------- | 
A | ----------------------------------------------- | 
E | ----------------------------------------------- | 

[Riff 2]
     Bm
e | ---2-------------0----------------------5----------- | 
B | -----------2h3-------3--2-------0---3-------0---3--- | 
G | ---------------------------------------------------- | 
D | -------0-------------------------------------------- | 
A | ---2------------------------2----------------------- | 
E | ---------------------------------------------------- | 

[Riff 3]
     Bm
e | ---2-------------0--------- | 
B | -----------2h3------3--2--- | 
G | --------------------------- | 
D | -------0------------------- | 
A | ---2----------------------- | 
E | --------------------------- | 

[Riff 4]
     G6                           E4/G#
e | ---------------------------------------------------- | 
B | -------------------3-----0----------------5--------- | 
G | -------------0-------0-----------------4-----4------ | 
D | ----------0-----0-------------------6-----------6--- | 
A | -------2-------------------------------------------- | 
E | ---3----------------------------4------------------- | 

[Riff 5]
     Bm11
e | ----------0----------0----------0------------0--- | 
B | -------2----------2----------2------------2------ | 
G | ------------------------------------------------- | 
D | ------------------------------------------------- | 
A | ---2----------2----------2-----------2----------- | 
E | ------------------------------------------------- | 

[Riff 6]
     G#m9
e | --------------2---------------------2--------- | 
B | -----------0-----0---------------0-----0------ | 
G | --------3-----------3---------3-----------3--- | 
D | ---------------------------------------------- | 
A | ---------------------------------------------- | 
E | ---4----------------------4------------------- | 

[Riff 7]
e | --------------------------------------------- | 
B | ---------4------7--------------4-------7----- | 
G | --------------------------------------------- | 
D | ---6--------6------------6---------6--------- | 
A | --------------------------------------------- | 
E | --------------------------------------------- | 
  | 
e | --------11---12---14----------11---12---14--- | 
B | ---12--------------------12------------------ | 
G | --------------------------------------------- | 
D | --------------------------------------------- | 
A | --------------------------------------------- | 
E | --------------------------------------------- | 

[Riff 8]
e | ---2----2----0-----0----------2---2----0-----2----0------ | 
B | -----3----3-----1-----1---------3---3-----1----3-----1--- | 
G | -------------------------2------------------------------- | 
D | --------------------------------------------------------- | 
A | --------------------------------------------------------- | 
E | --------------------------------------------------------- | 

[Riff 9]
e | ------------4-----------------4-----------------4-----------------4--------- | 
B | ------5-----------5-----5-----------5-----5-----------5-----5-----------5--- | 
G | ---4-----4-----4-----4-----4-----4-----4-----4-----4-----4-----4-----4------ | 
D | ---------------------------------------------------------------------------- | 
A | ---------------------------------------------------------------------------- | 
E | ---------------------------------------------------------------------------- | 

[Riff 10]
e | ------------2-----------------2-----------------2------------ | 
B | ------3-----------3-----3-----------3-----3-----------3------ | 
G | ---2-----2-----2-----2-----2-----2-----2-----2-----2-----2--- | 
D | ------------------------------------------------------------- | 
A | ------------------------------------------------------------- | 
E | ------------------------------------------------------------- | 

[Riff 11]
     G#m9/E             G#m9/F#
e | ------------2------------------2--------- | 
B | ---------0-----0------------0-----0------ | 
G | ------3-----------3------3-----------3--- | 
D | ----------------------------------------- | 
A | ----------------------------------------- | 
E | ---0------------------2------------------ | 


[Riff 12]
     G#m9               G#m9/F#
e | ------------2------------------2--------- | 
B | ---------0-----0------------0-----0------ | 
G | ------3-----------3------3-----------3--- | 
D | ----------------------------------------- | 
A | ----------------------------------------- | 
E | ---4------------------2------------------ | 


[Riff 13]
     G#m9/E             G#m9/F#
e | ------------2------------------- | 
B | ---------0-----0------------0--- | 
G | ------3-----------3------3------ | 
D | -------------------------------- | 
A | -------------------------------- | 
E | ---0------------------2--------- | 


[Riff 14]
     Bm
e | -----------------------7------------------------7--- | 
B | --------0--------------0---------0--------------0--- | 
G | ---6--------6--7--6----------6-------6--7--6-------- | 
D | ---------------------------------------------------- | 
A | ---------------------------------------------------- | 
E | ---7-------------------------7---------------------- | 
  | 
e | ---------------------------------------------------- | 
B | ---------------3-------------------------3---------- | 
G | ---------4---------4---------------4---------4------ | 
D | -------4---4----------4----------4---4----------4--- | 
A | ---2-------------------------2---------------------- | 
E | ---------------------------------------------------- | 


[Riff 15]
     Bm7
e | -----------------------7------------------------7--- | 
B | --------0--------------0---------0--------------0--- | 
G | ---6--------6--7--6----------6-------6--7--6-------- | 
D | ---------------------------------------------------- | 
A | ---------------------------------------------------- | 
E | ---7-------------------------7---------------------- | 
  | 
e | ---------------------------------------------------- | 
B | ---------------3-------------------------3---------- | 
G | ---------2---------2---------------2---------2------ | 
D | -------4---4----------4----------4---4----------4--- | 
A | ---2-------------------------2---------------------- | 
E | ---------------------------------------------------- | 


[Riff 16]
     Bm(addG)
e | -----------------------7------------------------7--- | 
B | --------0--------------0---------0--------------0--- | 
G | ---6--------6--7--6----------6-------6--7--6-------- | 
D | ---------------------------------------------------- | 
A | ---------------------------------------------------- | 
E | ---7-------------------------7---------------------- | 
  | 
e | ---------------------------------------------------- | 
B | ---------------3-------------------------3---------- | 
G | ---------0---------0---------------0---------0------ | 
D | -------4---4----------4----------4---4----------4--- | 
A | ---2-------------------------2---------------------- | 
E | ---------------------------------------------------- | 


[Riff 17]
     Bm(addG)/E
e | -----------------------7------------------------7--- | 
B | --------0--------------0---------0--------------0--- | 
G | ---6--------6--7--6----------6-------6--7--6-------- | 
D | ---------------------------------------------------- | 
A | ---------------------------------------------------- | 
E | ---0-------------------------0---------------------- | 
  | 
e | ---------------------------------------------------- | 
B | ---------------3-------------------------3---------- | 
G | ---------0---------0---------------0---------0------ | 
D | -------4---4----------4----------4---4----------4--- | 
A | ------------------------------------------------0--- | 
E | ---0--------------------------0--------------3------ | 


[Riff 18]
     Bm(addG)/G
e | -----------------------7------------------------7--- | 
B | --------0--------------0---------0--------------0--- | 
G | ---6--------6--7--6----------6-------6--7--6-------- | 
D | ---------------------------------------------------- | 
A | ---------------------------------------------------- | 
E | ---3-------------------------3---------------------- | 
  | 
e | ---------------------------------------------------- | 
B | ---------------3-------------------------3---------- | 
G | ---------0---------0---------------0---------0------ | 
D | -------4---4----------4----------4---4----------4--- | 
A | ---------------------------------------------------- | 
E | ---3-------------------------3---------------------- | 



Música:


[Riff 1] 1x
[Riff 2] 2x

[Riff 2] 2x com:
When you're asleep they may show you 
Aerial views of the ground, 
[Riff 3] 1x with lyrics:
Freudian slumber empty of sound.

[Riff 4] 1x
[Riff 5] 1x

[Riff 2] 2x com:
Over the rooftops and houses, 
Lost as it tries to be seen, 
[Riff 3] 1x with lyrics:
Fields of incentive covered with green. 

[Riff 4] 1x
[Riff 6] 2x

[Riff 6] 3x com:
Mesmerised children are playing, 
Meant to be seen but not heard, 
Stop me from dreaming
Don't be absurd

[Riff 7] 1x
[Riff 8] 1x
[Riff 1] 1x tocando o acorde D

D    Bm                    D 
Well if we can help you we will,
 Bm                       D 
You're looking tired and ill.
Em         C 
As I count backwards
     Em          B/A      A      E
Your eyes become heavier still.


 D     Bm                       D 
Sleep, won't you allow yourself fall?
 Bm                      D 
Nothing can hurt you at all.
Em           C 
With your consent
      Em    B/A           A       E
I can experiment further still.

[Riff 1] 1x
[Riff 2] 1x

[Riff 2] 2x com:
Madrigal music is playing, 
Voices can faintly be heard, 
[Riff 3] 1x with lyrics:
Please leave this patient undisturbed.

[Riff 4] 1x
[Riff 6] 1x

[Riff 6] 3x com:
Sentenced to drift far away now, 
Nothing is quite what it seems, 
Sometimes entangled in your own dreams. 

[Riff 7] 1x
[Riff 8] 1x
[Riff 1] 1x tocando o acorde D

D     Bm                    D
Well, if we can help you we will, 
 Bm                       D
Soon as you're tired and ill. 
Em           C
With your consent 
       Em    B/A           A      E
We can experiment further still. 
D     Bm                          D
Well, thanks to our kindness and skill 
 Bm                       D
You'll have no trouble until 
Em              C
You catch your breath 
        Em            B/A          A      E
And the nurse will present you the bill


[Riff 9] 1x
[Riff 10] 1x
[Riff 6] 3x
[Riff 11] 1x
[Riff 6] 1x
[Riff 12] 1x
[Riff 6] 1x
[Riff 11] 1x
[Riff 6] 1x
[Riff 12] 1x
[Riff 6] 1x
[Riff 13] 1x
[Riff 14] 1x
[Riff 15] 1x
[Riff 16] 1x
[Riff 17] 1x
[Riff 14] 1x
[Riff 15] 1x
[Riff 16] 1x
[Riff 17] 1x
[Riff 14] 1x
[Riff 15] 1x
[Riff 16] 1x
[Riff 17] 1x
[Riff 14] 1x
[Riff 15] 1x
[Riff 18] 1x
[Riff 17] 1x
[Riff 14] 2x


Fim: Bm  		   
AcordesyTabs.com © 2008 Acordes y Tablaturas para guitarra. Tabs and Chords for guitar. Aviso Legal - Contacto
El uso de este sitio está sujeto a la aceptación de los términos y condiciones (29 usuarios online)