tablaturas, partituras y acordes para guitarra
Busca por banda/artista:
 
y/o título de la canción:
A B C D E F G H I J K L M N O P Q R S T U V W X Y Z 0 1 2 3 4 5 6 7 8 9 / Top 100 tabs
Categorías
Usuarios
usuario:
Darse de alta
password:
Artistas más visitados
Publicidad
TOP acordes y tablaturas de A piko y pala


Estás en: Inicio > Letra A > Acordes y tablaturas de A piko y pala > Vuestra canción <span class=coltipo>
Vuestra canción <span class=coltipo>
de A piko y pala
Puntúa este acorde/tab:      
(0.7/5)
Reportar este acorde/tab
  Añadir a tus favoritos
  Imprimir
Intro:(2 acordes)
Am Em


E----------------------------0--0-1-0-3-0-5-0-7-0-8-8-------
B--------------------------0--0-----------------------------
G----3/9--7-5-7-5---6-7-------------------------------------
D-----------------------------------------------------------
A-----------------------------------------------------------
E-----------------------------------------------------------

E------------------------------------------------------------------------------------------------
B------------------------------------------------------------------------------------------------
G------------------------------------------------------------------------------------------------
D---10-9-7-10-9-7-10-9-7-9-9----7-9-10--9-10-12--10-12-14-12-14-15-14-12-14-12-10-12-10-9-10-9---
A------------------------------------------------------------------------------------------------
E------------------------------------------------------------------------------------------------


C     G    E
Estrofas:
A                 E  Riff 1
Detras de esta historia
A              E    Riff 1
No vallas a pensar
C               G              E
Que hay un vacio y no hay nada detras

Tu lo estas viendo

Bien calro se ve

Hay mucha gente tras esto y cuentan tambien

Esta es la señal

Para poder continuar

Y hacer mas canciones y pa lante tirar

Sin vuestro apoyo

Tan esencial

No tocariamos aki tampoco en otro lugar

Estribillo:
F       G      C         D
Por eso ahora esta cancion

No habla de sociedad ni de obreros del rock

Que simplemente va dedicada

A los hacen posible que estemos aki hoy


E------7/12--10-8-7-10-8--7/12-10-8-7-10-8(3X)----7/12-10-8-7-10-8-10-8-7-8-7-5-7-5-4-1-0--------
B------------------------------------------------------------------------------------------------
G------------------------------------------------------------------------------------------------
D------------------------------------------------------------------------------------------------
A------------------------------------------------------------------------------------------------
E------------------------------------------------------------------------------------------------

F       G      C         D
Por eso ahora esta cancion

No habla de chicas guays ni de un imposible amor

Que simplemente va dedica

A los hacen posible que estemos aki hoy


C               G
Sabeis una cosa os digo la verdad
A               E
Si estamos aki es para disfrutar
    F             C         G
Que suenen la guitarras vamos a cantar

Que no pare la fiesta

Y que corra el alcohol

Brindar por ke no muera nunca el rocanroll

todo esto te lo digo con todo el corazon 		   
AcordesyTabs.com © 2008 Acordes y Tablaturas para guitarra. Tabs and Chords for guitar. Aviso Legal - Contacto
El uso de este sitio está sujeto a la aceptación de los términos y condiciones (30 usuarios online)