tablaturas, partituras y acordes para guitarra
Busca por banda/artista:
 
y/o título de la canción:
A B C D E F G H I J K L M N O P Q R S T U V W X Y Z 0 1 2 3 4 5 6 7 8 9 / Top 100 tabs
Categorías
Usuarios
usuario:
Darse de alta
password:
Artistas más visitados
Publicidad
TOP acordes y tablaturas de Afi


Estás en: Inicio > Letra A > Acordes y tablaturas de Afi > Total immortal
Total immortal
de Afi
Puntúa este acorde/tab:      
(0.1/5)
Reportar este acorde/tab
  Añadir a tus favoritos
  Imprimir
Intro
G|-----(b9)(b9)--7-7-7------(b9)(b9)-------------(b9)(b9)--7-12-14-(b9)(b9)(b9)(b9)-|
D|-2-2-(b9)(b9)5-7-7-7--2-2-(b9)(b9)5-x-x-x--2-2-(b9)(b9)5-7-12-14-(b9)(b9)(b9)(b9)-|
A|-2-2-7-7-5-5-5-5--2-2-7-7-5-x-x-x--2-2-7-7-5-5-10-12-7-7-7-7--|
E|-0-0-----3--------0-0-----3-x-x-x--0-0-----3------------------|
Very fun to play.

Verse1
D|-7-8-5---7--|
A|-7-8-5---7--|
E|-5-6-4---5--|
This comes in when he mentiones the voiceless and the nameless ones, 
specifically starts with the word "ones".

Verse2 (palm muted)
e|-0-0-0-3-3-5-5-7-0-3-5-3-5--|
Interesting thing that appears during the second part of the verse.

Pre-chorus start
G|-------------------10--|
D|-(b9)(b9)(b9)(b9)(b9)(b9)(b9)(b9)(b9)10--|
A|-(b9)(b9)(b9)(b9)(b9)(b9)(b9)(b9)(b9)-8--|
E|-7-7-7-7-7-7-7-7-7-----|
pm\_________________/

Pre-chorus, *=play a lot of times
D|-2*--|
A|-2*--|
E|-0*--|
Start with palm muting, then lay it off.

Chorus1
G|-----------------7-7-7-7--|
D|-2-2-2-2-5-5-5-5-7-7-7-7--|
A|-2-2-2-2-5-5-5-5-5-5-5-5--|
E|-0-0-0-0-3-3-3-3----------|

Chorus2
G|-------------||--------------|
D|-------5-5-5-||-----5-7-7-7--|
A|-7-5-7-------||-7-(b9)---------|

Bridge start, ~-let ring
G|-2~--|
D|-2~--|
A|-0~--|

Bridge
G|-(b9)-(b9)(b9)(b9)(b9)-(b9)-(b9)(b9)(b9)7--(b9)-(b9)(b9)(b9)(b9)-(b9)-(b9)(b9)(b9)(b9)9/10-----|
D|-(b9)-(b9)(b9)(b9)(b9)-(b9)-(b9)(b9)(b9)7--(b9)-(b9)(b9)(b9)(b9)-(b9)-(b9)(b9)(b9)(b9)9/10-2~--|
A|-7--7-7-7-7--7--7-7-7-5--7--7-7-7-7--7--7-7-7-7-9/8--2~--|
E|-----------------------------------------------------0~--|

End note
D|-2~--|
A|-2~--|
E|-0~--|		   
AcordesyTabs.com © 2008 Acordes y Tablaturas para guitarra. Tabs and Chords for guitar. Aviso Legal - Contacto
El uso de este sitio está sujeto a la aceptación de los términos y condiciones (26 usuarios online)