tablaturas, partituras y acordes para guitarra
Busca por banda/artista:
 
y/o título de la canción:
A B C D E F G H I J K L M N O P Q R S T U V W X Y Z 0 1 2 3 4 5 6 7 8 9 / Top 100 tabs
Categorías
Usuarios
usuario:
Darse de alta
password:
Artistas más visitados
Publicidad
TOP acordes y tablaturas de Kiss
:: Beth - Kiss


Estás en: Inicio > Letra K > Acordes y tablaturas de Kiss > God gave rock'n'roll to you
God gave rock'n'roll to you
de Kiss
Puntúa este acorde/tab:      
(0.5/5)
Reportar este acorde/tab
  Añadir a tus favoritos
  Imprimir
Introd.: C# F#m F# Bm E A F# B G# C# F# 
 
intro     
e | ---------------------------------------------5-------------------------------- |  
B | ---------------9~----9~/-------------------8---8-5------------------/5-8-5---- |  
G | ----/8-11-11-(b9)---11------------/5-7-5-7/8---------7--5---5~/----/6----------- |  
D | -(b9)------------------------/6--------------------------7--------------------- |  
A | ------------------------------------------------------------------------------ |  
E | ------------------------------------------------------------------------------ |  
 
e | --------------------------------------------- |  
B | -5------------------------------------------- |  
G | ---7-5-7-5--5~------------------------------- |  
D | ------------------/14-16-16-16-14-16~/------- |  
A | --------------------------------------------- |  
E | --------------------------------------------- |  
 
 
 B                F#/A#      G#m             G#m/F# 
God gave rock and roll to you, gave rock and roll to you 
E              G  A   B 
Put it in the soul of everyone 
E                                     A 
Do you know what you want? You don't know for sure 
E                                A 
You don't feel right, you can't find a cure 
            G                              D 
And you're gettin' less than what you're lookin' for 
E                          A 
You don't have money or a fancy car 
E                                 A 
And you're tired of wishin' on a falling star 
    G                          D         F# 
You gotta put your faith in a loud guitar 
 
Chorus: 
 B                F#/A#      G#m             G#m/F# 
God gave rock and roll to you, gave rock and roll to you 
E              G  A   B 
Gave rock and roll to everyone (oh yeah) 
 B                F#/A#      G#m             G#m/F# 
God gave rock and roll to you, gave rock and roll to you 
E              G  A   B 
Put it in the soul of everyone 
 
"Now listen" 
E                             A 
If you wanna be a singer, or play guitar 
E                            A 
Man, you gotta sweat or you won't get far 
G                                  D 
Cause it's never too late to work nine-to-five 
E                                 A 
You can take a stand, or you can compromise 
E                                A 
You can work real hard or just fantasize 
         G                          D      F# G# A# 
But you don't start livin' till you realize - "I gotta tell ya!" 
 

D#                Bb/D       Cm              Cm/Bb 
God gave rock and roll to you, gave rock and roll to you 
G#             B  C#  D# 
Gave rock and roll to everyone 
D#                Bb/D       Cm              Cm/Bb 
God gave rock and roll to you, gave rock and roll to you 
G#             F#  C# 
Put it in the soul 
 
(Instrumental break) 
( D# G# C# D# G# C# F# C# )2X D# C# A# D# 
 
G#                D#/G 
God gave rock and roll to you (to everyone he gave the song to be sung) 
Fm            Fm/D#         C#            F#     G# 
Gave rock and roll to you, gave rock and roll to everyone 
G#                D#/G 
God gave rock and roll to you (to everyone he gave the song to be sung) 
Fm            Fm/D#         C#            F#     G# 
Gave rock and roll to you, saved rock and roll for everyone 

Saved rock and roll 
 
(solo) 
e | -----8brbr-----8-12brbr-8-10b-10--------12brbr-8---11b-11--8------8-10-12-14-14b-14 |  
B | ---(b9)-----(b9)11---------------------9br-(b9)-------11-----------(b9)11------------------ |  
G | -8-------------------------------8------------------------------------------------- |  
D | ----------------------------------------------------------------------------------- |  
A | ----------------------------------------------------------------------------------- |  
E | ----------------------------------------------------------------------------------- |  
 
e | -x-12b-10b----------------------------------------------------------------------- |  
B | -x---------------------------------------12~----------12~----------14-12--------- |  
G | -x--------12-10----10-----------12-10-12-----12-10-12-----12-10-12-------12------ |  
D | -x--------------12----12-10-------------------------------------------------10~/- |  
A | -x---------------------------10~------------------------------------------------- |  
E | -x------------------------------------------------------------------------------- |  
 
e | ----------------------------- |  
B | ----------------------------- |  
G | ----------------------------- |  
D | -11-(b9)----------------------- |  
A | ------11--------------------- |  
E | ---------9~------------------ |  
solo por Jonatas Albino
 
chorus repeats out... 
 
"I know life sometimes can get tough! And I know life sometimes can be a drag! 
But people, we have been given a gift, we have been given a road 
And that road's name is... Rock and Roll!" 		   
AcordesyTabs.com © 2008 Acordes y Tablaturas para guitarra. Tabs and Chords for guitar. Aviso Legal - Contacto
El uso de este sitio está sujeto a la aceptación de los términos y condiciones (77 usuarios online)