tablaturas, partituras y acordes para guitarra
Busca por banda/artista:
 
y/o título de la canción:
A B C D E F G H I J K L M N O P Q R S T U V W X Y Z 0 1 2 3 4 5 6 7 8 9 / Top 100 tabs
Categorías
Usuarios
usuario:
Darse de alta
password:
Artistas más visitados
Publicidad
TOP acordes y tablaturas de New Found Glory


Glory Of Love
de New Found Glory
Puntúa este acorde/tab:      
(0.5/5)
Reportar este acorde/tab
  Añadir a tus favoritos
  Imprimir
New Found Glory
Glory of Love

Okay peeps, heres the deal. Punk is my thing. Punk is great. After 
listening to this song hundreds of times and scanning through all the
wrong tabs out there, this one has been completed with perfect 
accuracy. Play this and you'll see, it rocks and to those who
say NFG, Blink and Good Charlotte aint punk, eat it!

Intro and Verses
---------------------------------
---------------------------------
-5------55--1010---55--5444------
-5--5---55--1010---55--5444------
-3--5---33---8-8---33--3222------
----3----------------------------

--------------------------------------------------
--------------------------------------------------
-55-55--------------------------------------------
-55-55-77-77-88-88-55-55-66-66-88-88-66-66-88-88--
-33-33-77-77-88-88-55-55-66-66-88-88-66-66-88-88--
-------55-55-66-66-33-33-44-44/66-6644-44/66-66-- 

Repeat the above parts as the song does.
After the 2nd time playing the above, it goes to the chorus, ta da!

Chorus: im not going to tab out the strumming because there are a lot
-------------------------------------------------------------------
-------------------------------------------------------------------
-5-----------5-----7----------7-7---------------7-----5------------
-5--3--2--5--5--7--7--5--7-7--7-7--2-2--6----7--7--5--5----3---5---
-3--3--2--5--3--7--5--5--7-7--5-5--2-2--6----7--5--5--3----3---5---
----1--0--3-----5-----3--5-5-------0-0--4pm--5-----3-------1pm-3---

after the first chorus, you go back to the intro and verse chords.
after the second chorus, you go to the bridge tabbed below.
bridge: again, there is lots of odd strumming and palm mutes for each
chord that i wont go into. its really simple to play if you just
listen to the song though.
 
---------------------------------------------------------------------------
-------------------------------------------------------------*clap*--------
-------7-7---8--7--8--7---------7--8--10--8----------------5-5/------5---5-
-3--6--7-7---8--7--8--7---3--6--7--8--10--8---5-5----5-----5-5/------5---5-
-3--6--5-5pm-6--5--6-5---3--6--5--6--8---6---5-5----5-----3-3/pm----33333-
-1--4---------------------1--4----------------3-3pm--3---------------------

After the bridge, you go back to the chorus and play it several times 
until you deem it necessary to stop, or can somehow fade out your 
guitar. Hehe. Anyways. Have fun and keep rockin out!

Willie T
		   
AcordesyTabs.com © 2008 Acordes y Tablaturas para guitarra. Tabs and Chords for guitar. Aviso Legal - Contacto
El uso de este sitio está sujeto a la aceptación de los términos y condiciones (26 usuarios online)