tablaturas, partituras y acordes para guitarra
Busca por banda/artista:
 
y/o título de la canción:
A B C D E F G H I J K L M N O P Q R S T U V W X Y Z 0 1 2 3 4 5 6 7 8 9 / Top 100 tabs
Categorías
Usuarios
usuario:
Darse de alta
password:
Artistas más visitados
Publicidad
TOP acordes y tablaturas de Nofx
:: Bob - Nofx


Estás en: Inicio > Letra N > Acordes y tablaturas de Nofx > Don't call me white
Don't call me white
de Nofx
Puntúa este acorde/tab:      
(0.3/5)
Reportar este acorde/tab
  Añadir a tus favoritos
  Imprimir
intro #A 
E|---------------------------------------------|
B|---------------------------------------------|
G|---------------------------------------------|
D|---4-----7-----2------------4-----7-----2----|
A|---4-----7-----2------------4-----7-----2----|
E|---2-----5-----0------------2-----5-----0----|
intro #B
E|---------------------------------------------|
B|---------------------------------------------|
G|---------------(b9)-----------------------(b9)---|
D|---4-----7-----(b9)-----------4-----7-----(b9)---|
A|---4-----7-----7------------4-----7-----7----|
E|---2-----5------------------2-----5----------|

riff 1 #A
E|----------------------------------------------------------|
B|----------------------------------------------------------|
G|----------------------------------------------------------|
D|--------------------------------4-4-4-4---6-7-7-6----2----|
A|--------------------------------6-6-6-6---7-7-7-7----2<<<-|
E|-----------------------------------------------------0<<<-|

riff 1 #B 
E|----------------------------------------------------------|
B|----------------------------------------------------------|
G|----------------------------------------------------(b9)----|
D|--4-4-4-4-6-7-7-6-4-4-4-4-6-7-7-6-4-4-4-4-6-7-7-6---(b9)----|
A|--6-6-6-6-7-7-7-7-6-6-6-6-7-7-7-7-6-6-6-6-7-7-7-7---7-<<<-|
E|------------------------------------------------------<<<-|

verse #A&B X2 *=play 6X pre chorus *=play6X #=play 24X
E|------------------------| E|---------------------|
B|------------------------| B|---------------------|
G|--*---*-----------------| G|---------------------|
D|-4---7----6--6-7-7-6--6-| D|-4---7---4---2---7---|
A|-4---7----7--7-7-7-7--7-| A|-4---7---4---2---7-<-|
E|-2---5------------------| E|-2---5---2---0---5-<-|

chorus #B play every note 6X
E|---------------------------------------------------|
B|---------------------------------------------------|
G|---------------------------------------------------|
D|---4-----7-----2-----2-----4-----7-----2-----2-----|
A|---4-----7-----2-----2-----4-----7-----2-----2-<<<|
E|---2-----5-----0-----0-----2-----5-----0-----0-<<<|

chorus #B play every note 6X
E|---------------------------------------------------|
B|---------------------------------------------------|
G|---------------(b9)----(b9)----------------(b9)----(b9)----|
D|---4-----7-----(b9)----(b9)----4-----7-----(b9)----(b9)----|
A|---4-----7-----7-----7-----4-----7-----7-----7-<<<-|
E|---2-----5-----------------2-----5-------------<<<-|		   
AcordesyTabs.com © 2008 Acordes y Tablaturas para guitarra. Tabs and Chords for guitar. Aviso Legal - Contacto
El uso de este sitio está sujeto a la aceptación de los términos y condiciones (22 usuarios online)