tablaturas, partituras y acordes para guitarra
Busca por banda/artista:
 
y/o título de la canción:
A B C D E F G H I J K L M N O P Q R S T U V W X Y Z 0 1 2 3 4 5 6 7 8 9 / Top 100 tabs
Categorías
Usuarios
usuario:
Darse de alta
password:
Artistas más visitados
Publicidad
TOP acordes y tablaturas de Shenandoah


Estás en: Inicio > Letra S > Acordes y tablaturas de Shenandoah > If bubba can dance
If bubba can dance
de Shenandoah
Puntúa este acorde/tab:      
(0.2/5)
Reportar este acorde/tab
  Añadir a tus favoritos
  Imprimir
Key of B 

Intro: solo- B F# B 
 
 | ----7-----------------------7-------7-------7--------- 
 | -/7---7---------------------7-------7-------7--------- 
 | --------7h9p7-----7-(b9)9(10)---9(10)---9(10)---9(10)-7- 
 | --------------7h(b9)------------------------------------ 
 | ------------------------------------------------------ 
 | ------------------------------------------------------ 
 
 | ---------------------------- 
 | ---------------------------- 
 | ---------------------------- 
 | -(b9)------7-7-7------7-7----- 
 | ---9(10)-------9(10)----(b9)-- 
 | --------------------------7- 
 
B                                E 
Well he saw it on TV and ordered that video 
   B                                    F# 
He learned every step at home and never told me so 
      B                              E 
When I saw him out there the very first time I knew 
      B         F#            B 
Well if Bubba can dance I can too 
 
Chorus 
       E 
Yeah now Bubba can scoot, Bubba can slide 
B                stop          B 
Bubba can two-step, Bubba can glide 
E                        B              F# 
I never though he had the nerve, he never said a word 
        B                                     E 
Well everybody in the place stand back and give me some room 
       B           F#            B 
Cause if Bubba can dance I can too 
 
Instrumental:  
B  E  B  F#  B 
 
B                                               E 
Well I've been watching all night and I'm working my courage up 
       B                                       F# 
Hey that dude's on the floor and he's doin' all the latest stuff 
      B                                 E 
Well if he's brave enough then I know what I gotta do 
      B         F#            B 
Hey if Bubba can dance, I can too 
 
chorus 
E       B          F#            B  E 
Well if Bubba can dance I can too     (repeat, then solo) 
 
 
 | --------------------------------------------------------- 
 | -10(11)(10)-8-7------------------------------------------ 
 | ----------------(b9)7-7------------------------------------ 
 | ----------------------7(8)(7)-6------------------0------- 
 | --------------------------------10-(b9)7-------0-2---2-0-2- 
 | ---------------------------------------10--2------------- 		   
AcordesyTabs.com © 2008 Acordes y Tablaturas para guitarra. Tabs and Chords for guitar. Aviso Legal - Contacto
El uso de este sitio está sujeto a la aceptación de los términos y condiciones (35 usuarios online)