tablaturas, partituras y acordes para guitarra
Busca por banda/artista:
 
y/o título de la canción:
A B C D E F G H I J K L M N O P Q R S T U V W X Y Z 0 1 2 3 4 5 6 7 8 9 / Top 100 tabs
Categorías
Usuarios
usuario:
Darse de alta
password:
Artistas más visitados
Publicidad
TOP acordes y tablaturas de King diamond


Estás en: Inicio > Letra K > Acordes y tablaturas de King diamond > No presents for christmas
No presents for christmas
de King diamond
Puntúa este acorde/tab:      
(0.5/5)
Reportar este acorde/tab
  Añadir a tus favoritos
  Imprimir
"Jingle Bells" 
e|----------------------------|
B|----------------------------|
G|----------------------------|
D|----------------------------|
A|-7-7-7--7-7-7--7-10---5-5/7-|
E|--------------------8-------|

e|-----------------------------------|
B|-----------------------------------|
G|-----------------------------------|
D|---------------------------------5-|
A|-7h8-8-8--8-8-7-7--7-7-7-5-5-7-5---|
E|-----------------------------------|

"I Saw Mommy Kissing Santa Claus" 
e|------------------------------------------|
B|------------------------------------------|
G|------------5-4---------------------------|
D|--------5-7-----5------7-7-5-----/7-5-----|
A|----5-7-----------7--7-------7--------7-3-|
E|--8----------------------------8----------|


Distorção:
e|---------------|
B|---------------|
G|---------------|
D|--4------------|
A|--2------------|
E|-----------X-|


Riff 1  
e|----------------------------------------|
B|----------------------------------------|
G|----------------------------------------|
D|----------------------------------4-5-6-|
A|----------------------------------2-3-4-|
E|-0h2-222222-0h2-222222-0h2-222222-------|
       
e|--------------------------------------------|
B|--------------------------------------------|
G|--------------------------------------------|
D|--------------------------------------------|
A|--------------------------------------------|
E|-0h2-222222-0h2-222222-0h2-222222-3p2p0-2-3-|
        
  


e|-----------------------------------------|
B|-----------------------------------------|
G|-----------------------------------------|
D|----------------------------------2--2---|
A|-2h4-444444-2h4-444444-2h4-444444-2--0-5-|
E|---------------------------------------3-|
       
   
Riff 2    
e|--------------------------------------------|
B|--------------------------------------------|
G|--------------------------------------------|
D|-7h(b9)-------7h(b9)-------7h(b9)10--(b9)-12--10--7-|
A|-7----------7----------7----7--7---7---7--7-|
E|-----000000-----000000----------------------|
       
                        "Christmas time..."
e|------------------------------------------|
B|------------------------------------------|
G|------------------------------------------|
D|-7h(b9)-------7h(b9)-------7h(b9)-------7--5--7-|
A|-7----------7----------7----------5--5--5-|
E|-----000000-----000000-----000000---------|

   "...again..."


Toque Riff 1   "He cannot find..."


Riff 3
e|--------------------------------|
B|--------------------------------|
G|--------------------------------|
D|----7--7--7-(b9)----12--12--12-12-|
A|----5--5--5-7-----10--10---(b9)10-|
E|-0-------------0----------------|
   
   "There's no presents..."
e|-------------------------------|
B|-------------------------------|
G|---------------------0-------0-|
D|----7--7--7-(b9)-----0-------0---|
A|----5--5--5-7----0-------0-----|
E|-0-------------2-------3-------|
   
   "There's no presents..."
e|----------------------------------|
B|----------------------------------|
G|----------------------------------|
D|----7--7--7-(b9)----12--12--12-12---|
A|----5--5--5-7-----10--10---(b9)10-0-|
E|-0-------------0------------------|
               
   "Tom and Jerry..."
e|-----------------|
B|-----------------|
G|-----------------|
D|-5--12--12--5--7-|
A|-3--10---(b9)-3--5-|
E|-----------------|
   "They don't give a damn."


Toque Riff 1


e|-----------------------------------------|
B|-----------------------------------------|
G|-----------------------------------------|
D|----------------------------------2--2---|
A|-2h4-444444-2h4-444444-2h4-444444-2--0-5-|
E|---------------------------------------3-|
       


Toque Riff 2   "Christmas time is here again..."
Toque Riff 1   "It's getting very very late..."
Toque Riff 3   "There's no presents..."


Riff 4 (Solo)    
e|---------------------------------------------|
B|---------------------------------------------|
G|---------------------------------------------|
D|-------5-------(b9)--8-------5-----------------|
A|---5h7---7~----7---7---5h7---7~--------------|
E|-0-----------0---0---0-----------0--7--6-5-3-|
   


"I Saw Mommy Kissing Santa Claus" (clean)
e|------------------------------------------|
B|------------------------------------------|
G|------------5-4---------------------------|
D|--------5-7-----5------7-7-5-----/7-5-----|
A|----5-7-----------7--7-------7--------7-3-|
E|--8----------------------------8----------|


(Distoção):
e|------------|
B|------------|
G|------------|
D|-4--2-------|
A|-2--0--5--4-|
E|-------3--2-|


 Riff 2   Solo 
 Riff 1   Solo 
 Riff 3   "There's no presents..."



e|-----------------------------------------------------------------|
B|-----------------------------------------------------------------|
G|-----------------------------------------------------------------|
D|---------7-----------------7-6*----------6-4----------------(b9)7*-|
A|-7-(b9)7-----(b9)7*--7-(b9)7-(b9)7-------5-7-5--------7*--7-(b9)7-(b9)7------|
E|-------(b9)------------------------------7-------------------------|

e|------------------------------------------------------------------|
B|------------------------------------------------------------------|
G|------------------------------------------------------------------|
D|-------7*-------------/4---------------7-6*-6*-6*--7-7--6---------|
A|-7-(b9)(b9)---(b9)7---7*--5----7-5-4*----5(b9)-------------------(b9)7-5---|
E|--------------(b9)-----------------7------------------------------7-|


"I'm dreaming of a white sabbath..." (clean)
e|--------------------|
B|--------------------|
G|--------------------|
D|----------------4-5-|
A|--7--8-7-6-7-8------|
E|--------------------|

Final (Distorção)
e|-------------------------|
B|-------------------------|
G|-------------------------|
D|-------5-------(b9)--8--9-|
A|---5h7---7~----7---7--7-|
E|-0-----------0---0-------|		   
AcordesyTabs.com © 2008 Acordes y Tablaturas para guitarra. Tabs and Chords for guitar. Aviso Legal - Contacto
El uso de este sitio está sujeto a la aceptación de los términos y condiciones (28 usuarios online)