tablaturas, partituras y acordes para guitarra
Busca por banda/artista:
 
y/o título de la canción:
A B C D E F G H I J K L M N O P Q R S T U V W X Y Z 0 1 2 3 4 5 6 7 8 9 / Top 100 tabs
Categorías
Usuarios
usuario:
Darse de alta
password:
Artistas más visitados
Publicidad
TOP acordes y tablaturas de The strokes


Juicebox
de The strokes
Puntúa este acorde/tab:      
(0.6/5)
Reportar este acorde/tab
  Añadir a tus favoritos
  Imprimir
Afinação - EADG

Introdução/Verso/Riff

g ----------------|
d ----------------|
a --------1-0-----|   X 24
e 0-0-3-0-----3-1-|

Refrão

g -------------------------------------|
d -------------------------------------|
a 7-7---5-7-7---7-5-5---5-----5-5 -----|  X 4
e ------------------------6-6----------|

Outro

g ----------------|
d ----------------|
a 1---1-1-------0-| x 4
e --------0-1-3---|

g ----------------|
d ----------------|
a 3---3-3-------1-| x 4
e --------0-1-3---|

g ----------------|
d ----------------|
a 1---1-1-------0-| x 4
e --------0-1-3---|

g ----------------|
d ----------------|
a 3---3-3-------1-| x 4
e --------0-1-3---|

Link

g ---------------|----------------|----------------|-----------------|
d ---------------|----------------|----------------|-----------------|
a ---------------|----------------|----------------|-----------------|
e 6---6-6-6-6-6-0|-5---5-5-5-5-5-0|-3---3-3-3-3-3-0|-1---1-1-1-1-1-1-|


Riff

g ----------------|
d ----------------|
a --------1-0-----|   X 8
e 0-0-3-0-----3-1-|


Solo

g -------------------------------------|
d -------------------------------------|
a 7-7---5-7-7---7-5-5---5-----5-5 -----|  X 4
e ------------------------6-6----------|

Riff

g ----------------|
d ----------------|
a --------1-0-----|   X 8
e 0-0-3-0-----3-1-|


Refrão

g -------------------------------------|
d -------------------------------------|
a 7-7---5-7-7---7-5-5---5-----5-5 -----|  X 4
e ------------------------6-6----------|

Outro

g ----------------|
d ----------------|
a 1---1-1-------0-| x 4
e --------0-1-3---|

g ----------------|
d ----------------|
a 3---3-3-------1-| x 4
e --------0-1-3---|

g ----------------|
d ----------------|
a 1---1-1-------0-| x 4
e --------0-1-3---|

g ----------------|
d ----------------|
a 3---3-3-------1-| x 4
e --------0-1-3---|

Link

g ---------------|----------------|----------------|-----------------|
d ---------------|----------------|----------------|-----------------|
a ---------------|----------------|----------------|-----------------|
e 6---6-6-6-6-6-0|-5---5-5-5-5-5-0|-3---3-3-3-3-3-0|-1---1-1-1-1-1-1-|


Final :

g ------------|
d ------------|         X 4
a 5---5-5-----|        
e ------------|

g ---------------|----------------|----------------|-----------------|
d ---------------|----------------|----------------|-----------------|
a ---------------|----------------|----------------|-----------------|
e 6---6-6-6-6-6-0|-5---5-5-5-5-5-0|-3---3-3-3-3-3-0|-1---1-1-1-1-1-1-|     

g ------------|
d ------------|         X 4
a 5---5-5-----|        
e ------------|

g ---------------|----------------|----------------|-----------------|
d ---------------|----------------|----------------|-----------------|
a ---------------|----------------|----------------|-----------------|
e 6---6-6-6-6-6-0|-5---5-5-5-5-5-0|-3---3-3-3-3-3-0|-1---1-1-1-1-1-1-|

g ------------|
d ------------|         X 4
a 5---5-5-----|        
e ------------|		   
AcordesyTabs.com © 2008 Acordes y Tablaturas para guitarra. Tabs and Chords for guitar. Aviso Legal - Contacto
El uso de este sitio está sujeto a la aceptación de los términos y condiciones (26 usuarios online)