tablaturas, partituras y acordes para guitarra
Busca por banda/artista:
 
y/o título de la canción:
A B C D E F G H I J K L M N O P Q R S T U V W X Y Z 0 1 2 3 4 5 6 7 8 9 / Top 100 tabs
Categorías
Usuarios
usuario:
Darse de alta
password:
Artistas más visitados
Publicidad
TOP acordes y tablaturas de Black sabbath


Born again
de Black sabbath
Puntúa este acorde/tab:      
(0.6/5)
Reportar este acorde/tab
  Añadir a tus favoritos
  Imprimir
|---------------------------------------------------------------|
|---------------------------------------------------------------|
|-5------5/7--54-4------5-----5/7--54-4-----5--4/5--5-------|
|-7------7(b9)-75-5------7-----7(b9)-75-5-----7--5/7--7-------|
|----0-0-----------------0--------------------------------------|
|---------------------------------------------------------------|

|------------------------------------------------------------------|
|------------------------------------------------------------------|
|--5--------5/7--54-4-------5---------5/7--54-4----7--54-5---|
|--7--------7(b9)-75-5-------7---------7(b9)-75-5----(b9)-75-7---|
|-------0-0-----------------0----0-0-------------------------------|
|------------------------------------------------------------------|

"Born Again!!!!"
|----------------------------------------------------------------|
|----------------------------------------------------------------|
|-7---7-7----7--9-5-5--------7-(b9)--11-(b9)7---(b9)7-5---7-5-4---7--|
|-7---7-7----7--9-5-5--------7-(b9)--11-(b9)7---(b9)7-5---7-5-4---7--|
|-5---5-5----5--7-3-3--------5-7----(b9)7-5---7-5-3---5-3-2---5--|
|----------------------------------------------------------------|

**2nd time, goes to this**
"Born Again!!!!"
|----------------------------------------------------------------------|
|----------------------------------------------------------------------|
|--------------------------------------------------------7-(b9)7---------|
|-5---5-5----5-(b9)--(b9)------(b9)----------97-7--7-7-(b9)10--7-(b9)7-(b9)75--|
|-5---5-5----5-(b9)--(b9)--(b9)--(b9)-9/10--(b9)-97-7--7-7-(b9)10--5-7-5-(b9)75--|
|-3---3-5----3-7---7--10---7-10/12-10--75-5--5-5-7--8--------7-53--|		   
AcordesyTabs.com © 2008 Acordes y Tablaturas para guitarra. Tabs and Chords for guitar. Aviso Legal - Contacto
El uso de este sitio está sujeto a la aceptación de los términos y condiciones (24 usuarios online)