tablaturas, partituras y acordes para guitarra
Busca por banda/artista:
 
y/o título de la canción:
A B C D E F G H I J K L M N O P Q R S T U V W X Y Z 0 1 2 3 4 5 6 7 8 9 / Top 100 tabs
Categorías
Usuarios
usuario:
Darse de alta
password:
Artistas más visitados
Publicidad
TOP acordes y tablaturas de Judas priest


The sentinel
de Judas priest
Puntúa este acorde/tab:      
(0.5/5)
Reportar este acorde/tab
  Añadir a tus favoritos
  Imprimir
Riff 1
|-----------------------------------------------------------------------|
|-----------------------------------------------------------------------|
|-----------------------------------------------------------------------|
|----------------2-4-5-4h5p4-2-0--5---4---2-----------------------------|
|-2--let ring--2------------------3---2---0----------------2------------|
|-0-----------------------------------------0-2-3-5-3-2~---0------------|

|-----------------------------------------------------------------------|
|-----------------------------------------------------------------------|
|-----------------------------------------------------------------------|
|-7--(b9)(b9)-----------------------5--4--2---------------------------------|
|-5--7-7----7-(b9)10-9h10p(b9)7-5---3--2--0-----------------2---------------|
|---------7------------------------------0-2-3-5-3-2~---0---------------|

Riff 2 (probably incorrect)
|---------------0-------------------------|
|-----------------0-------1---------------|
|-----------------------2--------0--------| X2
|---------------------3--------2----------|
|-0-2-3-0-2-3----------------3------0h2-0-|
|-----------------------------------------|
the second time Guitar 2 plays
|--------------------|
|--------------------|
|--------------------|
|-7--10--5--4--------|
|-5--8---3--2--------|
|--------------------|

Riff 3 (verse)
|-----------------------------|
|-----------------------------|
|-----------------------------|
|-5-5-2-5--2------------------|
|-3-3-0-3--0-strum-repeatedly-|
|-----------------------------|
After te first chorus use this variation
|------------------|
|------------------|
|------------------|
|----2--5-----2----|
|-5--0--3--5--0----|
|-3--------3-------|

Riff 4 (prechorus)

|----------------------------------------------------------|
|----------------------------------------------------------|
|----------------------------------------------------------|
|-7--10--7--2--2----------------------------5-5-2-5--------|
|-5--7---8--3--0-0-0-0-0-0-0-0-0-0-0-0-0-0--3-3-0-3--------|
|----------------------------------------------------------|

|-------------------|
|-------------------|
|-------------------|
|-7--10--7--12-7~-6-|
|-5--7---8--10------|
|-------------------|

Riff 5 (chorus)
|-----------------------------------------------------------------------|
|-----------------------------------------------------------------------|
|-----------------------------------------------------------------------|
|---10---(b9)--10-2-----------------------10---(b9)--10--2-----------2------|
|-7----7---7----0-0-0-0-0-0-0-0-0-0-0-7----7---7-----0-0-0-0-0---0------|
|--------------------------------------------------------------3--------|

|-----------------------------------------------------------------------|
|-----------------------------------------------------------------------|
|----------------------------------------------------7~-5~-4~-----------|
|---10---(b9)--10--7---------------------10---(b9)--10----------------------|
|-7----7---7-----8-8-8-8-8-8-8-8-8-8-8----8---8-------------------------|
|-----------------------------------------------------------------------|
The second time use this variation
|-----------------------------------------------------------------------|
|-----------------------------------------------------------------------|
|-7~-5~-/9~-/10~-/12~-/14~----------------------------------------------|
|-----------------------------------------------------------------------|
|-----------------------------------------------------------------------|
|-----------------------------------------------------------------------|

After the second chorus repeat riff 2 with guitar 2 playing this:

|-------------------------|
|-------------------------|
|-------------------------|
|-2--10---7--10--5--4--5--|
|-0--8----5--8---3--2--3--|
|-------------------------|

Riff 6 (pre solo thing)
Guitar 1
|-----------------------------------------------------------------------|
|-----------------------------------------------------------------------|
|-----------------------------------------------------------------------|
|---------5h7---------5h6h7~---------5h7--7-10-7-5----------------------|
|-0-0-0-0-----0-0-0-0--------0-0-0-0------5-7--8-3----------------------|
|-----------------------------------------------------------------------|
|Guitar 2
|-----------------------------------------------------------------------|
|-----------------------------------------------------------------------|
|-----------------------------------------------------------------------|
|---------5h7---------5h6h7----------5h7--7-10-7-5----------------------|
|-0-0-0-0-5h7-0-0-0-0-5h6h7-0-0-0-0--5h7--5-7--8-3----------------------|
|-----------------------------------------------------------------------|


|----------------------------------------------------------|
|----------------------------------------------------------|
|0-----2-----------0-2---------0-----2---------------------|
|0-----2-----------0-2---------0-----2-------7-(b9)10--------|
|--0-0---0-0-0-0-0-----0-0-0-0---0-0---0-0-0-5-7-8--10-----|
|---------------------------------------------------8------|


|------------------------------------------------------------|
|------------------------------------------------------------|
|------------------------------------------------------------|
|-2-----2---------2-2---------2-----2--7-(b9)10----------------|
|-0-0-0-0-0-0-0-0-0-0-0-0-0-0-0-0-0-0--5-7-8--10-------------|
|---------------------------------------------8--------------|

Solo Rythm 5

|-----------------------------------------------|
|-----------------------------------------------|
|-----------------------------------------------|
|-7-----------12------------(b9)----------(b9)------|
|-8-let ring--(b9)--let ring-10-let ring 11-------|
|-----------------------------------------------|


Guitar 1
|-0h1p0--1h3p1--3h5p3--5h7p5--7h8p7--8h10p8--10h12p10-------------------|
|-----------------------------------------------------------------------|
|-----------------------------------------------------------------------|
|-----------------------------------------------------------------------|
|-----------------------------------------------------------------------|
|-----------------------------------------------------------------------|
|Guitar 2 
|-----------------------------------------------------------------------|
|-----------------------------------------------------------------------|
|---------------0h2p0--2h4p2--4h5p4--5h7p5---7h9p7----------------------|
|-2h3p2--3h5p3----------------------------------------------------------|
|-----------------------------------------------------------------------|
|-----------------------------------------------------------------------|

Guitar 1
|-12h13p12--13h15p13--15h17p15--17h19p17--19h20p1(b9)---------------------|
|-----------------------------------------------------------------------|
|-----------------------------------------------------------------------|
|-----------------------------------------------------------------------|
|-----------------------------------------------------------------------|
|-----------------------------------------------------------------------|
|Guitar 2 
|-----------------------------------------------------------------------|
|-----------------------------------------------------------------------|
|-9h10p(b9)---10h12p10--12h14p12--14h16p14--16h17p16----------------------|
|-----------------------------------------------------------------------|
|-----------------------------------------------------------------------|
|-----------------------------------------------------------------------|

Guitar 1
|-20b22-20-1(b9)17--------------------------------------------------------|
|----------------20-18-20b22--------------------------------------------|
|-----------------------------------------------------------------------|
|-----------------------------------------------------------------------|
|-----------------------------------------------------------------------|
|-----------------------------------------------------------------------|
|Guitar 2 
|-----------------------------------------------------------------------|
|-----------------------------------------------------------------------|
|-17b1(b9)17-16-14--------------------------------------------------------|
|----------------17-15-17b1(b9)-------------------------------------------|
|-----------------------------------------------------------------------|
|-----------------------------------------------------------------------|

Riff 7 
|-----------------------------------------------------------------------|
|---10------------------------------------------------------------------|
|------(b9)----10--------(b9)-----7------5------4------2--------------------|
|-7--------------7-------(b9)-----7------5------4------2--2---------------|
|----------8---------7------5------3------2------0------0-let ring------|
|-----------------------------------------------------------------------|

Riff 8 
|-------------------------------------------|
|-------------------------------------------|
|-------------------------------------------|
|-7--10--5--7--10--5--7--10--5--7--10--5----|
|-7--10--5--7--10--5--8--10--5--8--10--5----|
|-------------------------------------------|
After a while, guitar 2 plays along with this:

|-------------------------------|
|-------------------------------|
|-------------------------------|
|-2-----------10------------7---|
|-0-let ring--8--let ring---5---|
|-------------------------------|
finish it with the second part of riff 4, then chorus a few
times finish with riff 7 and guitar 2 plays along with this

|------------------------------------------|
|------------------------------------------|
|-(b9)---------------------------------------|
|-7--10--(b9)-5--4---5--4--2-----------------|
|----8---7--3--2---3--2--0--let ring-------|
|------------------------------------------|		   
AcordesyTabs.com © 2008 Acordes y Tablaturas para guitarra. Tabs and Chords for guitar. Aviso Legal - Contacto
El uso de este sitio está sujeto a la aceptación de los términos y condiciones (22 usuarios online)