tablaturas, partituras y acordes para guitarra
Busca por banda/artista:
 
y/o título de la canción:
A B C D E F G H I J K L M N O P Q R S T U V W X Y Z 0 1 2 3 4 5 6 7 8 9 / Top 100 tabs
Categorías
Usuarios
usuario:
Darse de alta
password:
Artistas más visitados
Publicidad
TOP acordes y tablaturas de Dave matthews band


41
de Dave matthews band
Puntúa este acorde/tab:      
(0.4/5)
Reportar este acorde/tab
  Añadir a tus favoritos
  Imprimir

 #41                                               DAVE MATTHEWS BAND      
 INTRO:
  The intro is an arpeggio on Am Bm Em and D (in that order)
  Am			 Bm			Em		     D
e|----------------|----------------|----3-----------|----------------|
b|----1-----------|----3-----------|----0-----------|----3-------3---|
g|----------------|----------------|----0-----------|----------------|
d|--2-------------|--4-------------|--2-------------|--4---4---4---4-|
a|0---------------|2---------------|----------------|5-------5-------|
e|----------------|----------------|0---------------|----------------|

  VERSE:
 You can strum this anyway you want to but I usually strum it like this. 
 If it's confusing to you than make up your own strum. The low note is either A, B, E, or D (in that order) and the higher two notes are from a G chord
  A			 B			E		     D
e|----------------|----------------|----------------|----------------|
b|----8---8-8---8-|----8---8-8---8-|----8---8-8---8-|----8---8-8---8-|
g|----7---7-7---7-|----7---7-7---7-|----7---7-7---7-|----7---7-7---7-|
d|----------------|----------------|----------------|----------------|
a|----------------|----------------|7---7---7-7-7-7-|5---5---5-5-5-5-|
e|5---5---5-5-5-5-|7---7---7-7-7-7-|----------------|----------------|
Come see!
I swear by now I'm playing time against my troubles 
I'm coming slow but speeding 
Do you wish for a dance and while I'm in the front my playin time is won
Oh but the difficulty is comming... yeah

  CHORUS:
 Again, the way I strum may be confusing. If it is make up your own.
 The chords are G, D, Cmaj7, C (in that order) 
  G			 D			Cmaj7		     C
e|3---3---3-3---3-|0---0---0-0---0-|0---0---0-0---0-|0---0---0-0---0-|
b|0---0---0-0---0-|3---3---3-3---3-|0---0---0-0---0-|1---1---1-1---1-|
g|0---0---0-0---0-|0---0---0-0---0-|0---0---0-0---0-|0---0---0-0---0-|
d|0---0---0-0---0-|4---4---4-4---4-|2---2---2-2---2-|2---2---2-2---2-|
a|2---2---2-2---2-|5---5---5-5-5-5-|3---3---3-3-3-3-|3---3---3-3-3-3-|
e|3---3---3-3-3-3-|----------------|----------------|----------------|
I will go in this way 
And find my own way out 
I won't ask you to stay 
Oh but i'm coming to much more

  VERSE:
me all at once the ghosts come back reeling in you now 
oh what if they came down crushing (anyway)
used to be you and me play for all of the lonlines nobody notices now
oh begging slow i'm coming Yeah...

  CHORUS:
Only waiting
I wanted to stay
I wanted to play
I wanted to love you...
And only this time 
And only tomorrow leads my way 
i'm coming waltzing back and moving into your head please...

  VERSE:
I wouldn't pass this by 
Oh i wouldn't take more 
Than i need what sort of man rolls by 
I would bring him water why won't you ever be glad 
It melts into wonder 
I came in praying for you 
Why won't you run into rain and play 
Let the tears splash all over you

Violin Solo...
Flute Solo...
Sax Solo...(pretty long)

  OUTRO:
The outro has an odd strumming patten that I can't understand. Just make up you own. I made one up but you probably can't understand it. Anyway, here it is:

e|10--10--1010-7---7-8---8-8---8-7-7-5---5---5-5-5---5---5-5-5--|
b|-8---8---8-8-8---8-8---8-8---8-8-8-8---8---8-8-7---7---7-7-7--|
g|-7---7---7-7-7---7-7---7-7---7-7-7-7---7---7-7-7---7---7-7-7--|
d|--------------------------------------------------------------|
a|--------------------------------------------------------------|
e|--------------------------------------------------------------|

The Outro is mainly based off of a G but here are all the chords in the right order:

e|-10-||--7-||--8-||--7-||--5-||--5-|
b|--8-||--8-||--8-||--8-||--8-||--7-|
g|--7-||--7-||--7-||--7-||--7-||--7-|
d
a
e


		   
AcordesyTabs.com © 2008 Acordes y Tablaturas para guitarra. Tabs and Chords for guitar. Aviso Legal - Contacto
El uso de este sitio está sujeto a la aceptación de los términos y condiciones (19 usuarios online)