tablaturas, partituras y acordes para guitarra
Busca por banda/artista:
 
y/o título de la canción:
A B C D E F G H I J K L M N O P Q R S T U V W X Y Z 0 1 2 3 4 5 6 7 8 9 / Top 100 tabs
Categorías
Usuarios
usuario:
Darse de alta
password:
Artistas más visitados
Publicidad
TOP acordes y tablaturas de Nickelback


Estás en: Inicio > Letra N > Acordes y tablaturas de Nickelback > Worthy To Say
Worthy To Say
de Nickelback
Puntúa este acorde/tab:      
(0.9/5)
Reportar este acorde/tab
  Añadir a tus favoritos
  Imprimir
Nickelback- worthy to say

I like to play this part with an envelope filter in it
E----------------------
B----------------------
G-------------------12-
D------11---11---11----
A--0-0----0----0-------
E----------------------

distortion
E----------------------
B----------------------
G--5-5-7-7-------------
D--5-5-7-7-7-7-7-7-----
A--3-3-5-5-7-7-7-7-----
E----------5-5-5-5-----

distortion
E------------------                  ----------------------
B------------------                  ----------------------
G----------5---7-5-  3times and then ------------------7-5-
D--7-7-7-7-5-7-7-5-                  --5-5-5-5-5-5-5-5-7-5-
A--7-7-7-7-3-7-5-3-                  --5-5-5-5-5-5-5-5-5-3-
E--5-5-5-5---5-----                  --3-3-3-3-3-3-3-3-----

If you don't agree with me or if you have any questions you 
can mail me:lucafasotti@hotmail.com
		   
AcordesyTabs.com © 2008 Acordes y Tablaturas para guitarra. Tabs and Chords for guitar. Aviso Legal - Contacto
El uso de este sitio está sujeto a la aceptación de los términos y condiciones (29 usuarios online)