tablaturas, partituras y acordes para guitarra
Busca por banda/artista:
 
y/o título de la canción:
A B C D E F G H I J K L M N O P Q R S T U V W X Y Z 0 1 2 3 4 5 6 7 8 9 / Top 100 tabs
Categorías
Usuarios
usuario:
Darse de alta
password:
Artistas más visitados
Publicidad
TOP acordes y tablaturas de System of a down


Soldier side
de System of a down
Puntúa este acorde/tab:      
(0.3/5)
Reportar este acorde/tab
  Añadir a tus favoritos
  Imprimir
|-13----13----12----12----|-15------------13----|
|-------------------------|---------------------|
|-------------------------|---------------------|
|----12----------11----11-|----14------12----12-|

|-12----12----12----12----|-10~~~~~~~-----------|
|-------------------------|---------------------|
|-------------------------|---------------------|
|----11----11----11----11-|-9~~~~~~~~----12--10-|
					
|--------------------------|------------------------|
|--------------------------|------------------------|
|--------------------------|------------------------|
|-(10)~~~~--12—10-------13-|-12~~~~---12—10------13-|
  
|---------------------|-----------------------------|
|---------------------|-----------------------------|
|---------------------|-----------------------------|
|-12~~~~~~~~~~~----12-|10~~~~~~----12~~~~~~~~~~~~~~-|
	

|--------------------|--------------------------|
|--------------------|--------------------------|
|--------------------|--------------------------|
|-(12)~~~-----12--10-|-(10)~~~~--12—10-------13-|
      

|------------------------|---------------------|
|------------------------|---------------------|
|------------------------|---------------------|
|12~~~~---12—10-------13-|-12~~~~~~~~~~~----12-|

|-----------------------------|-------------|
|-----------------------------|-------------|
|-----------------------------|-------------|
|10~~~~~~----12~~~~~~~~~~~~~~-|-(12)~~~~~~~-|

|----13----13---12----12-|---12/14----------13----|
|------------------------|------------------------|
|------------------------|------------------------|
|-12----12---------13----|-11------------12----12-|

|-12----12----13----13----|-15----15----15----15----|
|-------------------------|-------------------------|
|-------------------------|-------------------------|
|----12----12----12----12-|----14----14----14----14-|		   
AcordesyTabs.com © 2008 Acordes y Tablaturas para guitarra. Tabs and Chords for guitar. Aviso Legal - Contacto
El uso de este sitio está sujeto a la aceptación de los términos y condiciones (44 usuarios online)