tablaturas, partituras y acordes para guitarra
Busca por banda/artista:
 
y/o título de la canción:
A B C D E F G H I J K L M N O P Q R S T U V W X Y Z 0 1 2 3 4 5 6 7 8 9 / Top 100 tabs
Categorías
Usuarios
usuario:
Darse de alta
password:
Artistas más visitados
Publicidad
TOP acordes y tablaturas de System of a down


Estás en: Inicio > Letra S > Acordes y tablaturas de System of a down > Snowblind (black sabbath cover)
Snowblind (black sabbath cover)
de System of a down
Puntúa este acorde/tab:      
(0.5/5)
Reportar este acorde/tab
  Añadir a tus favoritos
  Imprimir
chorus(2x's) 
1)----------------------)(-------------------)(--------------------( 
2)*---------------------)(-------------------)(-------------------*( 
3)*--3333-5555-66666666-)(-11111111-33333333-)(-------------------*( 
4)----------------------)(-------------------)(4-4-4444--6-6-6666--( 
 
verse (6x's) 
1)-----------)(---------------( 
2)-----------)(------------1-*( 
3)-3-3-3-1-3-)(-11-11111-----*( 
4)-----------)(----------3----( 
 
post chorus (2x's) 
1)------------)(----------( 
2)------------)(---------*( 
3)-3--1-0-----)(-----111-*( 
4)--------1-3-)(-444------( 
 
	chorus(2x's) 
1)----------------------)(-------------------)(--------------------( 
2)*---------------------)(-------------------)(-------------------*( 
3)*--3333-5555-66666666-)(-11111111-33333333-)(-------------------*( 
4)----------------------)(-------------------)(4-4-4444--6-6-6666--( 
 
verse (6x's) 
1)-----------)(---------------( 
2)-----------)(------------1-*( 
3)-3-3-3-1-3-)(-11-11111-----*( 
4)-----------)(----------3----( 
 
post chorus (2x's) 
1)------------)(----------( 
2)------------)(---------*( 
3)-3--1-0-----)(-----111-*( 
4)--------1-3-)(-444------( 
 
	chorus(2x's) 
1)----------------------)(-------------------)(--------------------( 
2)*---------------------)(-------------------)(-------------------*( 
3)*--3333-5555-66666666-)(-11111111-33333333-)(-------------------*( 
4)----------------------)(-------------------)(4-4-4444--6-6-6666--( 
 
interlude(6x's( go with bass drum) 
1)-----------------( 
2)*---------------*( 
3)*-3---1---------*( 
4)----------4---3--( 
 
	solo (2x's) 
1)----------------------------------------( 
2)*--------------------------------------*( 
3)*-3-3-6-3-6-3--3-6-3-6-3--3-6-3-6-3----*( 
4)------------------------------------666-( 
 
repeat these 3 riffs twice 
1)--------------)(-------------)(------( 
2)*-------------)(*-----------*)(-----*( 
3)*-3-3-6-3-6-3-)(*-3-6-3-6-3-*)(-----*( 
4)--------------)(-------------)(-666--( 
			(6x's) 
on the 3rd time do this for the third riff 
1)------------------( 
2)------------------( 
3)-3-----3-----3----( 
4)---66----66----66-( 
 
post chorus (2x's) 
1)------------)(----------( 
2)------------)(---------*( 
3)-3--1-0-----)(-----111-*( 
4)--------1-3-)(-444------( 
 
chorus(2x's) 
1)----------------------)(-------------------)(--------------------( 
2)*---------------------)(-------------------)(-------------------*( 
3)*--3333-5555-66666666-)(-11111111-33333333-)(-------------------*( 
4)----------------------)(-------------------)(4-4-4444--6-6-6666--( 
 
verse (6x's) 
1)-----------)(---------------( 
2)-----------)(------------1-*( 
3)-3-3-3-1-3-)(-11-11111-----*( 
4)-----------)(----------3----( 
 
post chorus (2x's) 
1)------------)(----------( 
2)------------)(---------*( 
3)-3--1-0-----)(-----111-*( 
4)--------1-3-)(-444------( 
 
chorus(2x's) 
1)----------------------)(-------------------)(--------------------( 
2)*---------------------)(-------------------)(-------------------*( 
3)*--3333-5555-66666666-)(-11111111-33333333-)(-------------------*( 
4)----------------------)(-------------------)(4-4-4444--6-6-6666--( 
 
outro until song fades out 
1)-----------------( 
2)*---------------*( 
3)*-3---1---------*( 
4)----------4---3--(		   
AcordesyTabs.com © 2008 Acordes y Tablaturas para guitarra. Tabs and Chords for guitar. Aviso Legal - Contacto
El uso de este sitio está sujeto a la aceptación de los términos y condiciones (29 usuarios online)