tablaturas, partituras y acordes para guitarra
Busca por banda/artista:
 
y/o título de la canción:
A B C D E F G H I J K L M N O P Q R S T U V W X Y Z 0 1 2 3 4 5 6 7 8 9 / Top 100 tabs
Categorías
Usuarios
usuario:
Darse de alta
password:
Artistas más visitados
Publicidad
TOP acordes y tablaturas de The strokes


Estás en: Inicio > Letra T > Acordes y tablaturas de The strokes > You only live once
You only live once
de The strokes
Puntúa este acorde/tab:      
(0.5/5)
Reportar este acorde/tab
  Añadir a tus favoritos
  Imprimir
[Guitar 1]

Intro
         (palm-muted) x4
E||--------------------|
B||--------------------|
G||--------------------|
D||--(b9)9(b9)(b9)(b9)(b9)(b9)(b9)(b9)-|
A||--7-77-7-7-7-7-7-7--|
E||--------------------|
 
                                  (palm-muted)
E||-----------------------------------------------|
B||-----------------------------------------------|
G||-----------------------------------------------|
D||--(b9)9(b9)(b9)(b9)(b9)(b9)(b9)(b9)-(b9)9(b9)(b9)(b9)(b9)(b9)(b9)(b9)----------|
A||--7-77-7-7-7-7-7-7--7-77-7-7-7-7-7-7-----------|
E||-----------------------------------------------|
                                                     (x2)
E||-----------------------------------------------|/
B||-----------------------------------------------|
G||-----------------------------------------------|
D||--------------------11-1111-11-11-11-11-11-11--|
A||--(b9)9(b9)(b9)(b9)(b9)(b9)(b9)(b9)--(b9)-(b9)(b9)-(b9)-(b9)-(b9)-(b9)-(b9)-(b9)-|
E||--7-77-7-7-7-7-7-7-----------------------------|

Verse.   x16        x8	         x8
E||---------|---------|------------|
B||---------|---------|------------|	
G||---------|---------|------------|(x 4)
D||--(b9)(b9)(b9)-|---------|--11-11-11--|
A||--7-7-7--|--(b9)(b9)(b9)-|---(b9)-(b9)-(b9)-|
E||---------|--7-7-7--|------------|

Refrão e Solo.	                      x4
E||--(b9)(b9)--7--11--(b9)--|--7-7--6--(b9)--7--|
B||--(b9)(b9)--(b9)-12--11--|--7-7--7--11--(b9)-|
G||--(b9)(b9)--(b9)-13--11--|--8-8--8--11--(b9)-|
D||-11-11--(b9)-13--11--|--(b9)(b9)-8--11--(b9)-|
A||-11-11--7--11--(b9)--|--(b9)(b9)-6--(b9)--7--|
E||--(b9)(b9)--7--11------|--7-7--6---------|

                                     (palm-muted)
E||-----------------------------------------------|
B||-----------------------------------------------|
G||-----------------------------------------------|
D||--(b9)9(b9)(b9)(b9)(b9)(b9)(b9)(b9)-(b9)9(b9)(b9)(b9)(b9)(b9)(b9)(b9)----------|
A||--7-77-7-7-7-7-7-7--7-77-7-7-7-7-7-7-----------|
E||-----------------------------------------------|
                                                     (x2)
E||-----------------------------------------------|/
B||-----------------------------------------------|
G||-----------------------------------------------|
D||--------------------11-1111-11-11-11-11-11-11--|
A||--(b9)9(b9)(b9)(b9)(b9)(b9)(b9)(b9)--(b9)-(b9)(b9)-(b9)-(b9)-(b9)-(b9)-(b9)-(b9)-|
E||--7-77-7-7-7-7-7-7-----------------------------|

Verse.   x16        x8	          x8
E||---------|---------|------------|
B||---------|---------|------------|	
G||---------|---------|------------|(x 4)
D||--(b9)(b9)(b9)-|---------|--11-11-11--|
A||--7-7-7--|--(b9)(b9)(b9)-|---(b9)-(b9)-(b9)-|
E||---------|--7-7-7--|------------|

Refrão e Solo.	                       x4
E||--(b9)(b9)--7--11--(b9)--|--7-7--6--(b9)--7--|
B||--(b9)(b9)--(b9)-12--11--|--7-7--7--11--(b9)-|
G||--(b9)(b9)--(b9)-13--11--|--8-8--8--11--(b9)-|
D||-11-11--(b9)-13--11--|--(b9)(b9)-8--11--(b9)-|
A||-11-11--7--11--(b9)--|--(b9)(b9)-6--(b9)--7--|
E||--(b9)(b9)--7--11------|--7-7--6---------|

No final                    x5
E||--7--x--7-7-x-x------|--7--|
B||--7--x--7-7-x-x------|--7--|
G||--8--x--8-8-x-x------|--8--|
D||--(b9)-x--(b9)(b9)x-x------|--(b9)-|
A||---------------------|-----|
E||---------------------|-----|

[Guitar 2]

Intro.	                                             x2
E||--(b9)(b9)(b9)(b9)(b9)-7--7--7-7--7---(b9)(b9)(b9)(b9)(b9)-6--6--6-6--6--|
B||--(b9)(b9)(b9)(b9)(b9)-(b9)-(b9)-(b9)(b9)-(b9)--7-7-7-7-7--7--7--7-7--7--|
G||--(b9)(b9)(b9)(b9)(b9)-(b9)-(b9)-(b9)(b9)-(b9)--8-8-8-8-8--6--6--6-6--6--|
D||-----------------------------------------------------|
A||-----------------------------------------------------|
E||-----------------------------------------------------|

Verse. 
E||--(b9)(b9)(b9)(b9)(b9)-7--7--7-7--7---(b9)(b9)(b9)(b9)(b9)--------------------|
B||--(b9)(b9)(b9)(b9)(b9)-(b9)-(b9)-(b9)(b9)-(b9)--7-7-7-7-7--11--11--11-12--11--|
G||--(b9)(b9)(b9)(b9)(b9)-(b9)-(b9)-(b9)(b9)-(b9)--8-8-8-8-8--11--11--11-13--11--|
D||---------------------------------------11--11--11-11--11--|
A||----------------------------------------------------------|
E||----------------------------------------------------------|

E||--(b9)(b9)(b9)(b9)(b9)-7--7--7-7--7---(b9)(b9)(b9)(b9)(b9)-6--6--6-6--6--|
B||--(b9)(b9)(b9)(b9)(b9)-(b9)-(b9)-(b9)(b9)-(b9)--7-7-7-7-7--7--7--7-7--7--|
G||--(b9)(b9)(b9)(b9)(b9)-(b9)-(b9)-(b9)(b9)-(b9)--8-8-8-8-8--6--6--6-6--6--|
D||-----------------------------------------------------|
A||-----------------------------------------------------|
E||-----------------------------------------------------|

E||--(b9)(b9)(b9)(b9)(b9)-7--7--7-11-11-(b9)--(b9)(b9)(b9)(b9)(b9)-6--6-------14--------|
B||--(b9)(b9)(b9)(b9)(b9)-(b9)-(b9)-(b9)(b9)-(b9)-(b9)--7-7-7-7-7--7--7--7/11----14-11--|
G||--(b9)(b9)(b9)(b9)(b9)-(b9)-(b9)-(b9)(b9)-(b9)-(b9)--8-8-8-8-8--6--6-----------------|
D||---------------------------------------------------------------|
A||---------------------------------------------------------------|
E||---------------------------------------------------------------|

E||--(b9)(b9)(b9)(b9)(b9)-7--7--7-7--7---(b9)(b9)(b9)(b9)(b9)-6--6--6-6--6--|
B||--(b9)(b9)(b9)(b9)(b9)-(b9)-(b9)-(b9)(b9)-(b9)--7-7-7-7-7--7--7--7-7--7--|
G||--(b9)(b9)(b9)(b9)(b9)-(b9)-(b9)-(b9)(b9)-(b9)--8-8-8-8-8--6--6--6-6--6--|
D||-----------------------------------------------------|
A||-----------------------------------------------------|
E||-----------------------------------------------------|

Chorus		                                               x2
E||--4-/-7/11/-(b9)-----------------|--2-/-6/-9/7-----------------|
B||--5-/-9/12/11--1111/10/9////2--|--4-/-7/11(b9)-9999/8/7////2--|
G||--6-/-9/13/11--1111/10/9////2--|--4-/-8/11/9—-9999/8/7////2--| 
D||-------------------------------------------------------------|  	
A||-------------------------------------------------------------|      
E||-------------------------------------------------------------|

Solo.  
E||--------------------------------------------------|
B||--12b(15)r12-11------7----------------------------|
G||-----------------13—-9b(11)(11)-(b9)----------------|
D||----------------------------------(b9)9/13-13-11-(b9)-|
A||--------------------------------------------------|
E||--------------------------------------------------|

E||--11--(b9)------------------------------------------|
B||--------11b(12)11---(b9)----------------------------|
G||-------------------11b(13)(13)11------------------|
D||---------------------------------(b9)9/14-14-13-(b9)--|
A||--------------------------------------------------|
E||--------------------------------------------------|

E||--12--11--------------------12-----12-----(b9)--11-11-(b9)--------------|
B||---------14—10b(11)10--10-14--14-12--12-11-11---------12--11-////5--|
G||--------------------------------------------------------------------|
D||--------------------------------------------------------------------|
A||--------------------------------------------------------------------|
E||--------------------------------------------------------------------|

>Intro
>Verse
>Chorus

Solo.  
E||--------------------------------------------------|
B||--12b(15)r12-11------7----------------------------|
G||-----------------13—-9b(11)(11)-(b9)----------------|
D||----------------------------------(b9)9/13-13-11-(b9)-|
A||--------------------------------------------------|
E||--------------------------------------------------|

E||--11--(b9)------------------------------------------|
B||--------11b(12)11---(b9)----------------------------|
G||-------------------11b(13)(13)11------------------|
D||---------------------------------(b9)9/14-14-13-(b9)--|
A||--------------------------------------------------|
E||--------------------------------------------------|

E||--12--11--------------------12-----12-----(b9)--11--(b9)----------------------------------|
B||---------14—10b(11)10--10-14--14-12--12-11-11-------12--11---(b9)-----------------------|
G||------------------------------------------------------------11b(13)13-11--------------|
D||-------------------------------------------------------------------------(b9)9/14-14-13-|
A||--------------------------------------------------------------------------------------|
E||--------------------------------------------------------------------------------------|

No fim...          x23
E||----11------11------|--11--|
B||--------12------12--|--12--|
G||--11--11--11--11----|--11--|
D||--------------------|------|
A||--------------------|------|
E||--------------------|------|		   
AcordesyTabs.com © 2008 Acordes y Tablaturas para guitarra. Tabs and Chords for guitar. Aviso Legal - Contacto
El uso de este sitio está sujeto a la aceptación de los términos y condiciones (29 usuarios online)