tablaturas, partituras y acordes para guitarra
Busca por banda/artista:
 
y/o título de la canción:
A B C D E F G H I J K L M N O P Q R S T U V W X Y Z 0 1 2 3 4 5 6 7 8 9 / Top 100 tabs
Categorías
Usuarios
usuario:
Darse de alta
password:
Artistas más visitados
Publicidad
TOP acordes y tablaturas de Nevermore


42147
de Nevermore
Puntúa este acorde/tab:      
(0.4/5)
Reportar este acorde/tab
  Añadir a tus favoritos
  Imprimir
42147 transcribed by Jeff Loomis

1)
--------------------------------------------------------------------
--------------------------------------------------------------------
--------------------------------------------------------------------
--------------------------------------------------------------------
------------7-----10-------------7-(b9)10-(b9)--------------------------
-0--0-0-0-0---0-0-----0--0-0-0-0------------------------------------

--------------------------------------------------------------------
--------------------------------------------------------------------
--------------------------------------------------------------------
--------------------------------------------------------------------
------------6-----(b9)-------------6-(b9)6-7----------------------------
-0--0-0-0-0---0-0-----0--0-0-0-0------------------------------------

2)Harmony to pattern 1
--------------------------------------------------------------------
--------------------------------------------------------------------
--------------------------------------------------------------------
--------------------------------------------------------------------
------------10-----14-------------10-12-14-12-----------------------
-0--0-0-0-0----0-0-----0--0-0-0-0-----------------------------------

--------------------------------------------------------------------
--------------------------------------------------------------------
--------------------------------------------------------------------
--------------------------------------------------------------------
------------(b9)----12-------------(b9)12-(b9)10--------------------------
-0--0-0-0-0---0-0-----0--0-0-0-0------------------------------------

3)
------------------------------------------------------------------------------
------------------------------------------------------------------------------
------------------------------------------------------------------------------
-8-8-----------------------(b9)8---------12-8---------(b9)8-----------------------
-6-6--6-6-6--6-6-6--6-6-6--7-6--6-6-6--10-6--6-6-6--7-6--6-6-6--6-6-6--6-6-6--
------------------------------------------------------------------------------

                           second ending to section 3 (then back to section 1)
--------------------------|------------------------------------------
--------------------------|------------------------------------------
--------------------------|------------------------------------------
--------------------------|--(b9)8--6----------------------------------
-7-6---6------------------|--7-6--4--5-------------------------------
-----(b9)--(b9)7-(b9)7-6-7-6-4--|----------3-------------------------------

hold  4) solo rythms
----|----------------------------------------------------------------
-5--|-5--------------------5-----------------------------------------
-6--|-6--------------------6-----------------------------------------
-6--|-6--6-6--6--6-6--7-7--6--6-6--6--6--6---------------------------
-4--|-4--4-4--4--4-4--5-5--4--4-4--4--4--4--5--5---------------------
----|---------------------------------------3--3---------------------
                                 repeat
--------------------------------------|------------------------------
-5-------5------------5---------------|------------------------------
-6-------6------------6------------6--|------------------------------
-6--6-6--6--6-6--7-7--6--6-6--6--5----|------------------------------
-4--4-4--4--4-4--5-5--4--4-4--4-------|------------------------------
--------------------------------------|------------------------------


--------------------------------------------------------------------
-8-----------------8-----8------------------------------------------
-(b9)----------------(b9)----(b9)-----------------------------------------
-(b9)----(b9)--(b9)10-10-(b9)----(b9)--(b9)----(b9)----(b9)--(b9)10-10----------------
-7-----7---7-8--8--7-----7---7-8-8-7-----7---7-8--8-----------------
---0-0---0-----------0-0---0---6-6---0-0---0------------------------

                 5) clean part (1st measure 4 times)
-----------------|--------0---|---------0----|---------------------------
-----------------|----(b9)---(b9)-|-----(b9)----(b9)-|---------------------------
--------------(b9)-|--8---8-----|-------8------|---------------------------
-(b9)----(b9)---8----|------------|--10----------|-(b9)------------------------
-7-----7---------|------------|--------------|---------------------------
---0-0---0-------|------------|--------------|---------------------------

4 times
-----0----|--------0----------0----------0----------0----|------------
-(b9)----(b9)-|----(b9)----(b9)---(b9)----(b9)---(b9)----(b9)---(b9)----(b9)-|------------
---8------|------8----------8----------8----------8------|------------
----------|-10----------(b9)---------8----------8----------|------------
----------|----------------------------------------------|------------
----------|----------------------------------------------|------------

6) repeat twice 
---------------------------------------------------------------------------------
---------------------------------------------------------------------------------
---------------------------------------------------------------------------------
-----------------------------6-------------------------------5--------3--3-------
-5--5-5-5--4--4-4-4-4--4-4-4-4--4-4-4--5--5-5-5--4--4-4-4-4--3-3-3-3--3--3--3-3--
-3--3-3-3--2--2-2-2-2--2-2-2-2--2-2-2--3--3-3-3--2--2-2-2-2--1-1-1-1--1--1--1-1--

7) up beat segment (play twice)
--------------------------------------------------------------------
--------------------------------------------------------------------
--------------------------------------------------------------------
------------------------------------------0-------------------------
------------------------------------------0-------------------------
-2-4-4--2-4-2-4-4--2-4-5-4-4--2-4-2-4-4-2---------------------------

8) play twice
--------------------------------------------------------------------
--------------------------------------------------------------------
--------------------------------------------------------------------
--------------------------------------------------------------------
--------------------------------------------------------------------
-5-7-7-5-7-5-7-7--5-7-8-7-7-5-7-5-7-7-5-1---------------------------

9) play twice
--------------------------------------------------------------------
--------------------------------------------------------------------
--------------------------------------------------------------------
-----------------------------------------------------0--------------
-4--6-6--4-6-4-6-6--4-6--4-6--7--6-6--4-6-4--6-6--4--0--------------
-2--4-4--2-4-2-4-4--2-4--2-4--5--4-4--2-4-2--4-4--2-----------------

10)
-----------------------------------------------|--------------------
-----------------------------------------------|--------------------
----------0------------------------------------|--------------------
-4--4-------0----------------------------------|--------------------
-2-----2------5-5---7-5-4-4---2-4-5---4---2----|--------------------
--------------3---3-----2---2-------2---2---2--|--------------------

11)
------0--------0--------0-------------|------------------------------
--------0--------0--------0-----------|------------------------------
--------------------------------------|------------------------------
--------------------------------------|------------------------------
-2-2------4-4------5-5------7--10-(b9)--|------------------------------
-0-0------2-2------3-3------5--8--7---|------------------------------

12) play twice
----------------------------------------------------------------------------
----------------------------------------------------------------------------
----------------------------------------------------------------------------
----------------------------------------------------------------------------
-2--------------------3--------------------6-------------------5-6-5---5----
----0-0-0-0--0-0-0-0-----0-0-0-0--0-0-0-0-----0-0-0-0--0-0-0-0-------4---4--

----------------------------------------------------------------------------
----------------------------------------------------------------------------
----------------------------------------------------------------------------
----------------------------------------------------------------------------
-2-------------------1--------------------4--------------------1-4-1---1----
---0-0-0-0--0-0-0-0-----0-0-0-0--0-0-0-0-----0-0-0-0--0-0-0-0--------1---1--

13) Evd-Octave Heavy                         *
----------------------------------------------|----------------------
----------------------------------------------|----------------------
-(b9)--------------------10---------------------|----------------------
-*---------------------*----------------------|----------------------
-7---------------------8----------------------|----------------------
---0-0-0--0-0-0--0-0-0---0-0-0--0-0-0--0-0-0--|----------------------

repeat 13 to *                    ...then   
---------------------------------|-----------------------------------
---------------------------------|-----------------------------------
-10---------------------7--------|-----------------------------------
-*----------------------*--------|-3---------------------------------
-5----------------------5--------|-1--4------------------------------
---0-0-0--0-0-0--0-0-0----0-0-0--|----2------------------------------

Back to section 5 to end song.		   
AcordesyTabs.com © 2008 Acordes y Tablaturas para guitarra. Tabs and Chords for guitar. Aviso Legal - Contacto
El uso de este sitio está sujeto a la aceptación de los términos y condiciones (32 usuarios online)