tablaturas, partituras y acordes para guitarra
Busca por banda/artista:
 
y/o título de la canción:
A B C D E F G H I J K L M N O P Q R S T U V W X Y Z 0 1 2 3 4 5 6 7 8 9 / Top 100 tabs
Categorías
Usuarios
usuario:
Darse de alta
password:
Artistas más visitados
Publicidad
TOP acordes y tablaturas de Nevermore


Matricide
de Nevermore
Puntúa este acorde/tab:      
(0.3/5)
Reportar este acorde/tab
  Añadir a tus favoritos
  Imprimir
Tuning: Eb

Intro           1st                      2nd
|--------------|-----------------------|--------------------------|
|-8-8---7--7---|--3-3---4--------------|--------------------------|
|-(b9)(b9)--8--8---|--4-4---5--------------|---------------4-4---5----|
|-(b9)(b9)x-8--8---|--4-4-x-5--------------|--2-2---1--1---4-4-x-5----| 
|-7-7-x-6--6---|--2-2-x-3--------1-4~--|--2-2---1--1---2-2-x-3----|
|--------------|-----------0-2-3---2~--|--0-0-0-------------------|
                           . . . .            .
                 1st                     2nd
|---------------|----------------------|-----------------|
|-8-8---7--7----|--3-3---4-------------|-----------------|
|-(b9)(b9)--8--8----|--4-4---5-------------|-----------------|
|-(b9)(b9)x-8--8----|--4-4-x-5-------------|--2-2---1--1-----|
|-7-7-x-6--6----|--2-2-x-3-------1-4~--|--2-2---1--1-----|
|---------------|----------0-2-3---2~--|--0-0-0-------0--|
                           . . . .

Fill 1
|----------------------------|
|----------------------------|
|--12-12	-11-7-2/7---|
|----------------------------|
|--10-10 (b9) 9-5		   
AcordesyTabs.com © 2008 Acordes y Tablaturas para guitarra. Tabs and Chords for guitar. Aviso Legal - Contacto
El uso de este sitio está sujeto a la aceptación de los términos y condiciones (49 usuarios online)