tablaturas, partituras y acordes para guitarra
Busca por banda/artista:
 
y/o título de la canción:
A B C D E F G H I J K L M N O P Q R S T U V W X Y Z 0 1 2 3 4 5 6 7 8 9 / Top 100 tabs
Categorías
Usuarios
usuario:
Darse de alta
password:
Artistas más visitados
Publicidad
TOP acordes y tablaturas de Nevermore


Estás en: Inicio > Letra N > Acordes y tablaturas de Nevermore > The sorrowed man
The sorrowed man
de Nevermore
Puntúa este acorde/tab:      
(0.5/5)
Reportar este acorde/tab
  Añadir a tus favoritos
  Imprimir
------0-------0-------0-------------------0-------------------------
----1---1---1---1---1---1---1---------0-----0-----------------------
--0-------0-------4-------2---0-----0---0-----0---------------------
--------------------------------4-2---------------------------------
--------------------------------------------------------------------
--------------------------------------------------------------------

-----------------------|------0-------0----------0-------------------
----------0-------0----|----1---1---1----------4---0-----------------
--------0---0---0---0--|--2-------2------1-2/5-----------------------
--0-2/5-------4--------|---------------------------------------------
-----------------------|---------------------------------------------
-----------------------|---------------------------------------------

------0-------0-------0-------0-------0-----------------------------
----4---0---3---3---3---0---0---0---0---0---------------------------
--5-------4-------4-------1-----------------------------------------
----------------------------------2---------------------------------
--------------------------------------------------------------------
--------------------------------------------------------------------

                       solo rythm (twice)
-----------------------------------|---------------------------------
------5-----5-----6-----6-----6-5--|---------------------------------
----7-----7-----7-----7-----7------|---------------------------------
--0-----0-----0-----0-----0--------|---------------------------------
-----------------------------------|---------------------------------
-----------------------------------|---------------------------------

-------------------------------------------------------|-------------
------5-----5-----6-----6-----6-5-----5-----5-----6----|-------------
----6-----6-----6-----6-----6-------7-----7-----7------|-------------
--0-----0-----0-----0-----0-------0-----0-----0-----0--|-------------
-------------------------------------------------------|-------------
-------------------------------------------------------|-------------

--------(b9)----8-----6-----6-----6----|-------------------------------
------6-----6-----6---6-----6-----6--|-------------------------------
----7-----7-----7-------7-----7------|-------------------------------
--0----------------------------------|-------------------------------
-------------------------------------|-------------------------------
-------------------------------------|-------------------------------

-------6-----6-----5-----5-----5----|-------------------------------
-----4-----4-----4---4-----4-----4--|-------------------------------
---3-----3-----3-------3-----3------|-------------------------------
-0----------------------------------|-------------------------------
------------------------------------|-------------------------------
------------------------------------|-------------------------------		   
AcordesyTabs.com © 2008 Acordes y Tablaturas para guitarra. Tabs and Chords for guitar. Aviso Legal - Contacto
El uso de este sitio está sujeto a la aceptación de los términos y condiciones (28 usuarios online)