tablaturas, partituras y acordes para guitarra
Busca por banda/artista:
 
y/o título de la canción:
A B C D E F G H I J K L M N O P Q R S T U V W X Y Z 0 1 2 3 4 5 6 7 8 9 / Top 100 tabs
Categorías
Usuarios
usuario:
Darse de alta
password:
Artistas más visitados
Publicidad
TOP acordes y tablaturas de Nevermore


Estás en: Inicio > Letra N > Acordes y tablaturas de Nevermore > The sanity assassin
The sanity assassin
de Nevermore
Puntúa este acorde/tab:      
(0.4/5)
Reportar este acorde/tab
  Añadir a tus favoritos
  Imprimir
INTRO (played twice)
     (strum)                     (strum)
---------------------------------|-----------------------------
----------5------5-----5h6---5---|-----5---5---5h6-5-----------
--------5-----5-----5------5---5-|---5---5---5-------5---------
------7--------------------------|-6---------------------------
---------------------------------|-----------------------------
---------------------------------|-----------------------------



      (strum)                 (strum)
------------8---7---5--------|-------------0-------------------
----------5---5---5---8-6-0--|-----4---4-----4---0-------------
--------5--------------------|---5---5---5-----5---------------
------5----------------------|-4-------------------------------
-----------------------------|---------------------------------
-----------------------------|---------------------------------



END INTRO
  (strum)
---------------0-----------------0-----------------------------
-------1---1-----1---0-----0---0---0---0-----0---0---0---0-----
-----2---2---2-----2-----1---1-------1-------------------------
---1-------------------2-----------------0h2---0---------------
---------------------------------------------------3---2-------
---------------------------------------------------------------



HEAVY CHORUS (repeat, then intro)
---------------------------------------------------------------
--------------------------0--0-0-0--0-0-0----------------------
----2--2-2--2-------------0--0-0-0--1-1-1----------------------
----2--2-2--2-4-5--5-5-5--2--2-2-2--2-2-2----------------------
----0--0-0--0-2-3--3-3-3--2--2-2-2--2-2-2----------------------
--------------2-3--3-3-3--0--0-0-0--0-0-0----------------------



A SECTION
--------------------0-------------------------0----------------
----5--5-5--4--4-4----4------5--5-5---1--1-1----1--------------
----6--6-6--5--5-5------5----6--6-6---2--2-2------2------------
----7--7-7--6--6-6--------6--7--7-7---3--3-3--------3----------
----7--7-7--6--6-6-----------7--7-7---3--3-3-------------------
---------------------------------------------------------------



B SECTION
---------------------------------------------------------------
---------------------------------------------------------------
---------------------------------------------------------------
---5-----------4--3--4--7--6-----------------------------------
---3--2--3--5--2--3--2--5--4--4--3--3--3-----------------------
---3--0--1--3--2--1--2--5--4--2--1--1--1--1-3-1-3-b3-1---------



SOLO RYTHM
---------------------------------------------------------------
---------------------------------------------------------------
---------------------------------------------------------------
--------------------------------------------------------17-----
---2--2-2-2-3-2---2-2-2--3---2--2-2-2-3-2--2-2-2-----15----15--
---0--0-0-0-1-0---0-0-0--1---0--0-0-0-1-0--0-0-0--13-----------		   
AcordesyTabs.com © 2008 Acordes y Tablaturas para guitarra. Tabs and Chords for guitar. Aviso Legal - Contacto
El uso de este sitio está sujeto a la aceptación de los términos y condiciones (23 usuarios online)