tablaturas, partituras y acordes para guitarra
Busca por banda/artista:
 
y/o título de la canción:
A B C D E F G H I J K L M N O P Q R S T U V W X Y Z 0 1 2 3 4 5 6 7 8 9 / Top 100 tabs
Categorías
Usuarios
usuario:
Darse de alta
password:
Artistas más visitados
Publicidad
TOP acordes y tablaturas de Nevermore


Estás en: Inicio > Letra N > Acordes y tablaturas de Nevermore > Enemies of reality
Enemies of reality
de Nevermore
Puntúa este acorde/tab:      
(0.2/5)
Reportar este acorde/tab
  Añadir a tus favoritos
  Imprimir
Tuning : Bb Eb Ab Gb Db Bb Eb 	
Time Signature: 3/4 to 6/4...

I however just did 4/4 time with triplets.  
Relative speed in this case about 180 bpm


Intro/Outro Riff.
 |       |       |       |        |       |       |       |        
|--------------------------------|--------------------------------|
|--------------------------------|--------------------------------|
|--T-------T--------T------T-----|--T-------T-------T-------T-----|
|--------------------------------|--------------------------------|
|6-6-6---(b9)(b9)(b9)--121212----------|6-6-6-----------3-3-3-----------|
|--------------------------------|--------------------------------|
|4-4-4---7-7-7---101010--0-0-0---|4-4-4---0-0-0---1-1-1---0-0-0---|
                         P.M.-|           P.M.-|          P.M.-|

 |       |       |       |        |       |       |       |        
|--------------------------------|--------------------------------|
|--------------------------------|---T----------------------------|
|--T-------T-------T-------T-----|----------T-------T-------T-----|
|--------------------------------|9/10(b9)--------------------------|
|6-6-6---(b9)(b9)(b9)--121212----------|----------------8/9/8-----------|
|--------------------------------|7/8/7---------------------------|
|4-4-4---7-7-7---101010--0-0-0---|--------0-0-0---6/7/6---0-0-0---|
                         P.M.-|           P.M.-|          P.M.-|

 |       |       |       |        |       |       |       |        
|--------------------------------|--------------------------------|
|--------------------------------|--------------------------------|
|--T-------T-------T-------T-----|--T-------T-------T-------T-----|
|--------------------------------|--------------------------------|
|6-6-6---(b9)(b9)(b9)--121212----------|6-6-6-----------3-3-3-----------|
|--------------------------------|--------------------------------|
|4-4-4---7-7-7---101010--0-0-0---|4-4-4---0-0-0---1-1-1---0-0-0---|
                         P.M.-|           P.M.-|          P.M.-|

 |       |       |       |        |       |       |       |        
|--------------------------------|--------------------------------|
|--------------------------------|--------------------------------|
|--T-------T-------T-------T-----|--T-------T-------T-------T-----|
|--------------------------------|--------------------------------|
|6-6-6---(b9)(b9)(b9)--121212----------|--------------------------3-6---|
|--------------------------------|2h5p2-----2---------2---5-------|
|4-4-4---7-7-7---101010--0-0-0---|--------4---4---1-4-------------|
                         P.M.-|           P.M.- - - - - - - - -|   


Outro extension
 |       |       |       |         
|--------------------------------|
|--------------------------------|
|--------------------------------|
|--------------------------------|
|--------------------------6-(b9)--|
|5h8p5-----5---------5---8-------|
|--------7---7---4-7-------------|

 |       |       |       |        
|--------------------------------|
|--------------------------------|
|--------------------------------|
|--------------------------------|
|--------------------------(b9)12--|
|8h118-----8---------8---11------|
|--------10--10--7-10------------|



Verse Riff. (initially played without palm muting)
 |       |       |       |        |       |       |       |        
|--------------------------------|--------------------------------|
|--------------------------------|--------------------------------|
|--------------------------------|--------------------------------|
|--------------------------------|--------------------------------|
|--T-------T-------T-------T-----|--T-------T-------T-------T-----|
|--------------------------------|--------------------------------|
|0-1-0---1-0-1---0-3-0---1-0-1---|0-1-0---3-0-1---0-1-0---1-0-1---|
 P.M.- - - - - - - - - - - - - - - - - - - - - - - - - - - - - -|

 |       |       |       |        |       |       |       |        
|--------------------------------|--------------------------------|
|--------------------------------|--------------------------------|
|--------------------------------|--------------------------------|
|--------------------------------|--------------------------------|
|--T-------T-------T-------T-----|--T-------T-------T-------T-----|
|--------------------------------|--------------------------------|
|0-3-0---1-0-1---0-1-0---3-1-3---|0-1-0---1-0-1---0-3-0---1-0-1---|
 P.M.- - - - - - - - - - - - - - - - - - - - - - - - - - - - - -|

 |       |       |       |        |       |       |       |        
|--------------------------------|--------------------------------|
|--------------------------------|--------------------------------|
|--------------------------------|--------------------------------|
|--------------------------------|--------------------------------|
|--T-------T-------T-------T-----|--T-------T-------T-------T-----|
|--------------------------------|--------------------------------|
|0-1-0---3-0-1---0-1-0---1-0-1---|0-3-0---1-0-1---0-1-0---8-7-5---|
 P.M.- - - - - - - - - - - - - - - - - - - - - - - - - - - - - -|


End of Verse riff.  
 |       |       |       |        |       |       |       |        
|--------------------------------|--------------------------------|
|--------------------------------|--------------------------------|
|--------------------------------|--------------------------------|
|--------------------------------|--------------------------------|
|--T-------T-------T-------T-----|--T-------T-------T-------T-----|
|--------------------------------|--------------------------------|
|2-3-2---3-2-3---2-5-2---3-2-3---|2-3-2---5-2-3---2-3-2---3-2-3---|
 
 |       |       |       |        |       |       |       |        
|--------------------------------|--------------------------------|
|--------------------------------|--------------------------------|
|--------------------------------|--------------------------------|
|--------------------------T-----|--------------------------------|
|--T-------T-------T-------------|--T-------T-------T-------T-----|
|------------------------5-3-2---|--------------------------------|
|2-5-2---3-2-3---2-3-2-----------|1-3-1---3-1-3---1-5-1---3-1-3---|

 |       |       |       |        |       |       |       |        
|--------------------------------|--------------------------------|
|--------------------------------|--------------------------------|
|--------------------------------|--------------------------------|
|--------------------------------|--------------------------T-----|
|--T-------T-------T-------T-----|--T-------T-------T-------------|
|--------------------------------|------------------------3-2-----|
|1-3-1---5-1-3---1-3-1---3-1-3---|1-5-1---3-1-3---1-3-1-------5---|


Pre-Chorus Riff
 |       |       |       |        |       |       |       |        
|--------------------------------|--------------------------------|
|--------------------------------|--------------------------------|
|--------------------------------|--------------------------------|
|--------------------------------|--------------------------------|
|2---2---2-------2---2---2-------|2---2---2-------2---2---2-------|
|2---2---2-------2---2---2-------|2---2---2-------2---2---2-------|
|0---0---0-------0---0---0-------|0---0---0-------0---0---0-------|
 Heavy P.M. and very sticatto - - - - - - - - - - - - - - - - - -|

 |       |       |       |        |       |       |       |        
|--------------------------------|--------------------------------|
|--------------------------------|--------------------------------|
|--------------------------------|--------------------------------|
|--------------------------------|(b9)----------------------7-------|
|3-3-3---2-------2---2---2-------|----(b9)--2-------6---7-----------|
|3-3-3---2-------2---2---2-------|7-----------------------5-------|
|1-1-1---0-------0---0---0-------|----7---0-------4---5-----------|
         P.M. - - - - - - -|




Chorus GTR 1. 
 |       |       |       |        |       |       |       |        
|--------------------------------|--------------------------------|
|--------------------------------|--------------------------------|
|--------------------------------|--------------------------------|
|(b9)------(b9)--(b9)--(b9)------(b9)--(b9)--|----(b9)--7---(b9)--10------10--10--|
|--------------------------------|--------------------------------|
|7-------7---7---7-------7---7---|----7---5---7---8-------8---8---|
|--------------------------------|--------------------------------|

 |       |       |       |        |       |       |       |        
|--------------------------------|--------------------------------|
|--------------------------------|--------------------------------|
|--------------------------------|--------------------------------|
|10--(b9)--7-------7---7---7---(b9)--|5-------5---4---(b9)------(b9)--(b9)--|
|--------------------------------|--------------------------------|
|8---7---5-------5---5---5---7---|3-------3---2---7-------7---7---|
|--------------------------------|--------------------------------|

 |       |       |       |        |       |       |       |        
|--------------------------------|--------------------------------|
|--------------------------------|--------------------------------|
|--------------------------------|--------------------------------|
|(b9)------(b9)--(b9)------(b9)--7---(b9)--|10------10--10--10--(b9)--10------|
|--------------------------------|--------------------------------|
|7-------7---7-------7---5---7---|8-------8---8---8---7---8-------|
|--------------------------------|--------------------------------|

 |       |       |       |           
|--------------------------------|
|--------------------------------|
|--------------------------------|
|10--10--(b9)--10--13--------------|
|--------------------------------|
|8---8---7---8---11--------------|
|--------------------------------|


First Guitar Solo Rhythm.
 |       |       |       |        |       |       |       |        
|--------------------------------|--------------------------------|
|--------------------------------|--------------------------------|
|--------------------------------|--------------------------------|
|--------------------------------|--------------------------------|
|----------T-----2---------T-----|----------T-----5---------T-----|
|--------------------------------|--------------------------------|
|0---0---0-0-0-------0---0-0-0---|3---3---3-3-3-------3---3-3-3---|
|
|
|First Guitar Solo (Yes the solo is harmonized...probably by thirds, or 4ths)
|--------------------------------|--------------------------------|
|19b-----(21)rb---19~~~~~~~~~~~~~|171917--151415--171514----1415p-|
|--------------------------------|------------------------16------|
|--------------------------------|---T-------T-------T-------T----|
|--------------------------------|--------------------------------|
|--------------------------------|--------------------------------|
|--------------------------------|--------------------------------|

 |       |       |       |        |       |       |       |        
|--------------------------------|--------------------------------|
|--------------------------------|--------------------------------|
|--------------------------------|--------------------------------|
|--------------------------------|--------------------------------|
|----------T-----4---------------|3---------T-----3---------T-----|
|--------------------------------|--------------------------------|
|2---2---2-2-2-------2---2-2-2---|----1---1-1-1-------1---1-1-1---|
|
|
|--------------------------------|--------------------------------|
|14--------14--------------------|--------------------------------|
|--1614--16--16--141211--121412b-|----(13)rb------12~~~~~~~~~~~~~~|
|--------------------------------|--------------------------------|
|---T-------T-------T-------T----|--------------------------------|
|--------------------------------|--------------------------------|
|--------------------------------|--------------------------------|

 |       |       |       |        |       |       |       |        
|--------------------------------|--------------------------------|
|--------------------------------|--------------------------------|
|--------------------------------|--------------------------------|
|--------------------------------|--------------------------------|
|----------T-----2---------T-----|----------T-----5---------T-----|
|--------------------------------|--------------------------------|
|0---0---0-0-0-------0---0-0-0---|3---3---3-3-3-------3---3-3-3---|
|
|
|--------------------------------|----------1014/-1914--------14--|
|--------------------------------|--------12----------15----15----|
|111211------11------------------|----11-----T-------T----16------|
|------141214----141211--141211--|--12-----------------------T----|
|--------------------------------|14------------------------------|
|---------T---------T-------T----|---T----------------------------|
|--------------------------------|--------------------------------|
 
 |       |       |       |        |       |       |       |        
|--------------------------------|--------------------------------|
|--------------------------------|--------------------------------|
|--------------------------------|--------------------------------|
|--------------------------------|--------------------------------|
|----------T-----4---------T-----|3---------T-----3---------T-----|
|--------------------------------|--------------------------------|
|2---2---2-2-2-------2---2-2-2---|----1---1-1-1-------1---1-1-1---|
|
|      
|22211(b9)-211(b9)---1(b9)-------------|--------------------------------|
|------------22----2220--192022--|201917--15171(b9)-171514--171514--|
|---T-------T--------------------|--------------------------------|
|-------------------T-------T----|---T-------T-------T-------T----|
|--------------------------------|--------------------------------|
|--------------------------------|--------------------------------|
|--------------------------------|--------------------------------|
 
 Last note held into pre chorus. 
|--------------------------------|--------------------------------|
|--------------------------------|--------------------------------|
|16~~~~~~~~~~~~~~~~~~~~~~~~~~~~~~|~~~~~~~~~~~~~~~~~~~~~~~~~~~~~~~~|
|--------------------------------|--------------------------------|
|--------------------------------|--------------------------------|
|--------------------------------|--------------------------------|
|--------------------------------|--------------------------------|



Second Guitar solo on the way along with backing rhythm.



Final Lead Bit Over Pre-Chorus
 |       |       |       |        |       |       |       |        
|191613--1613----13--------------|--------------------------------|
|------1(b9)---1916--191613191613--|1613----13----------------------|
|------------------------------19|----1916--191613191613--1613----|
|--------------------------------|----------------------1(b9)---1916|
|--------------------------------|--------------------------------|
|--------------------------------|--------------------------------|
|--------------------------------|--------------------------------|

 |       |       |       |        |       |       |       |        
|--------------------------------|--------------------------------|
|--------------------------------|--------------------------------|
|13------------------------------|--------------------------------|
|--191613191613--1613----13------|--------------------------------|
|--------------1(b9)---1916--191613|191613--1613----13--------------|
|--------------------------------|------1(b9)---1916--191613191613--|
|--------------------------------|------------------------------19|

 |       |       |       |        |       |       |       |        
|181512--1512----12--------------|--------------------------------|
|------18----1815--181512181512--|1512----12----------------------|
|------------------------------18|----1815--181512181512--1512----|
|--------------------------------|----------------------18----1815|
|--------------------------------|--------------------------------|
|--------------------------------|--------------------------------|
|--------------------------------|--------------------------------|

 |       |       |       |        |       |       |       |        
|--------------------------------|--------------------------------|
|--------------------------------|--------------------------------|
|12------------------------------|--------------------------------|
|--181512181512--1512----12------|--------------------------------|
|--------------18----1815--181512|181512--1512----12--------------|
|--------------------------------|------18----1815--181512181512--|
|--------------------------------|------------------------------18|


Harmonized by minor 3rd second time around.  
 |       |       |       |        |       |       |       |        
|191613--1613----13--------------|--------------------------------|
|------1(b9)---1916--191613191613--|1613----13----------------------|
|------------------------------19|----1916--191613191613--1613----|
|--------------------------------|----------------------1(b9)---1916|
|--------------------------------|--------------------------------|
|--------------------------------|--------------------------------|
|--------------------------------|--------------------------------|
|
|
|161310--1310----10--------------|--------------------------------|
|------16----1613--161310161310--|1310----10----------------------|
|------------------------------16|----1613--161310161310--1310----|
|--------------------------------|----------------------16----1613|
|--------------------------------|--------------------------------|
|--------------------------------|--------------------------------|
|--------------------------------|--------------------------------|


 |       |       |       |        |       |       |       |        
|--------------------------------|--------------------------------|
|--------------------------------|--------------------------------|
|13------------------------------|--------------------------------|
|--191613191613--1613----13------|--------------------------------|
|--------------1(b9)---1916--191613|191613--1613----13--------------|
|--------------------------------|------1(b9)---1916--191613191613--|
|--------------------------------|------------------------------19|
|
|      
|--------------------------------|--------------------------------|
|--------------------------------|--------------------------------|
|10------------------------------|--------------------------------|
|--161310161310--1310----10------|--------------------------------|
|--------------16----1613--161310|161310--1310----10--------------|
|--------------------------------|------16----1613--161310161310--|
|--------------------------------|------------------------------16|



 |       |       |       |        |       |       |       |        
|181512--1512----12--------------|--------------------------------|
|------18----1815--181512181512--|1512----12----------------------|
|------------------------------18|----1815--181512181512--1512----|
|--------------------------------|----------------------18----1815|
|--------------------------------|--------------------------------|
|--------------------------------|--------------------------------|
|--------------------------------|--------------------------------|
|
|
|1512(b9)--12(b9)----(b9)--------------|--------------------------------|
|------15----1512--1512(b9)1512(b9)--|12(b9)----(b9)----------------------|
|------------------------------15|----1512--1512(b9)1512(b9)--12(b9)----|
|--------------------------------|----------------------15----1512|
|--------------------------------|--------------------------------|
|--------------------------------|--------------------------------|
|--------------------------------|--------------------------------|


 |       |       |       |        |       |       |       |        
|--------------------------------|--------------------------------|
|--------------------------------|--------------------------------|
|12------------------------------|--------------------------------|
|--181512181512--1512----12------|--------------------------------|
|--------------18----1815--181512|181512--1512----12--------------|
|--------------------------------|------18----1815--181512181512--|
|--------------------------------|------------------------------18|
|
|
|--------------------------------|--------------------------------|
|--------------------------------|--------------------------------|
|(b9)------------------------------|--------------------------------|
|--1512(b9)1512(b9)--12(b9)----(b9)------|--------------------------------|
|--------------15----1512--1512(b9)|1512(b9)--12(b9)----(b9)--------------|
|--------------------------------|------15----1512--1512(b9)1512(b9)--|
|--------------------------------|------------------------------15|		   
AcordesyTabs.com © 2008 Acordes y Tablaturas para guitarra. Tabs and Chords for guitar. Aviso Legal - Contacto
El uso de este sitio está sujeto a la aceptación de los términos y condiciones (29 usuarios online)