tablaturas, partituras y acordes para guitarra
Busca por banda/artista:
 
y/o título de la canción:
A B C D E F G H I J K L M N O P Q R S T U V W X Y Z 0 1 2 3 4 5 6 7 8 9 / Top 100 tabs
Categorías
Usuarios
usuario:
Darse de alta
password:
Artistas más visitados
Publicidad
TOP acordes y tablaturas de Nevermore


Estás en: Inicio > Letra N > Acordes y tablaturas de Nevermore > Tomorrow turned into yesterday
Tomorrow turned into yesterday
de Nevermore
Puntúa este acorde/tab:      
(0.4/5)
Reportar este acorde/tab
  Añadir a tus favoritos
  Imprimir
Played on a 7-string tuned down a half note
You can play it on a regular axe but the song loses some of the Nevermore-sound

Intro
Eb|----0-----------------------------------<12>---<7>-----<5>--
Bb|---1--1----------4---10-1----------------<12>---<7>---<5>---
Gb|-------2-----0--4-------------0--4-------------------<5>----
Db|--2---------0--4----2--------0--4--2------------------------
Ab|-3---------2--2----3--------2--2--22------------------------
Eb|---------23---------------23-------0------------------------
Bb|------------------------------------------------------------

Intro "solo"
Eb|-------------------------------------------------------------
Bb|-----------1212-----------12---------------------------------
Gb|-11h12-1214-----1412111214--12--1212h14p1211-----------------
Db|---------------------------------------------1412------------
Ab|-------------------------------------------------12----------
Eb|---------------------------------------------------15141512--
Bb|-------------------------------------------------------------

Verse                                    Little pre-verse lead
Eb|---------------------------------0--- -----------------------------------
Bb|------------0-----------------0---3-- -----------------------------------
Gb|----0------3--3-------0------2-2----- -----------------------------------
Db|---2--2---2----2-----0--0---2---2---- -12h14-141211--1412----------------
Ab|--2----2-4----------2----2-0--------- -------------------10--910b(12)-12-
Eb|-0---------------023------3---------- -----------------------------------
Bb|------------------------------------- -----------------------------------
					 ^ - vol. swell

Pre-chorus
Eb|----0---0--------------------------
Bb|------1-1---1/3--------------------
Gb|---0----0--------------------------
Db|--2-----2---2/4--4444222255554454--
Ab|-3------3--------2222000055554454--
Eb|-----------------2222000033332232--
Bb|-----------------------------------
                    ^ - dist.
Chorus
    Ab5     Cb5      Gb5     F5 E5
Eb|--------------------------------------
Bb|--------------------------------------
Gb|--------------------------------------
Db|--------------------------------------
Ab|--7-------10-------10------(b9)8--------
Eb|--5--------8-------10------(b9)8--------
Bb|--5--------8--------8------7-6--------

Bridge rhythm
Eb|---------------------------------
Bb|---------------------------------
Gb|--7------5------7------3---5-----
Db|--7------5------7------3---5-----
Ab|--5------3------5------1---3-----
Eb|--5------3------5------1---3-----
Bb|---------------------------------

Bridge lead
Eb|---------------------------------
Bb|---------------------------------
Gb|---------------------------------
Db|---------5-------------5--7-5----
Ab|--5-7-8---------5-7-8----8-------
Eb|---------------------------------
Bb|---------------------------------

Heavy part
Eb|-----------------------------------
Bb|-----------------------------------
Gb|-----------------------------------
Db|-----------------------------------
Ab|-7-----7-----7---8-----8-----8-----
Eb|-5-xxxx5-xxxx5-xx6-xxxx6-xxxx6-xx--
Bb|-5-xxxx5-xxxx5-xx6-xxxx6-xxxx6-xx--

Solo backing
Eb|------------------------------
Bb|------------------------------
Gb|-(b9)----12---------------------
Db|-(b9)----12-----12---11-10------
Ab|-7-----10-----12---11-10------
Eb|-7-----10-----10----(b9)-8------
Bb|------------------------------

Solo: Sorry, can't really help you there

Final chorus (up one note)
    Bb5     Db5      Ab5     G5 F#5
Eb|--------------------------------------
Bb|--------------------------------------
Gb|--------------------------------------
Db|--------------------------------------
Ab|--(b9)------12-------12-----11-10-------
Eb|--7-------10-------12-----11-10-------
Bb|--7-------10-------10------(b9)-8-------

Then play the bridge and end with the heavy part. Over and out!



-----------------------------------------------------------------------------------------------------------------------------------------------------------




Tomorrow Turned Into Yesterday Tab by Nevermore, www.Ultimate-Guitar.Com   	 &#65533;  Tomorrow Turned Into Yesterday Tab @ 911Tabs.Com

-------------------------------------------------------------------------------
        Tomorrow Turned Into Yesterday solo - Nevermore
-------------------------------------------------------------------------------
Tabbed by: Big Bear

Legend - | /  slide up
         |   slide down
         | h  hammer-on
         | p  pull-off
         | ~  vibrato
         | +  harmonic
         | x  Mute note

This solo isn't nearly as hard as a lot of Nevermore solos, but still its a bit tricky.
Take your time and get all the parts down exact before speeding up. Happy shredding !

Tuning: 7 String tuned to A#, but can also be played on a 6 string tuned to Eb
                                                   p  p


e|-15~~~~--15-15-14-15-~~~~~--12---12-12-12-----11-12-10----h--h-------------|
B|--------------------------------------------------------13-12-13~~~~~------|
G|---------------------------------------------------------------------------|
D|---------------------------------------------------------------------------|
A|---------------------------------------------------------------------------|
E|---------------------------------------------------------------------------|

                                              h  h                          h
e|-------h--h--h----------------------------12-17-12----------------------12-17-|
B|-12--12-13-12-10----10~~~--------------13----------13-----------------13------|
G|-----------------12-----------------14----------------14------------14--------|
D|-----------------------------h---14---------------------14--h--h--14----------|
A|---------------------------12-15--------------------------15-12-15------------|
E|------------------------------------------------------------------------------|

           (bu)              h  p  p  h  p  p  h  p  p  h  p  p       (bu)
e|-16--17-1(b9)20--1(b9)17-16--16-17-16-13-16-13-12-13-12-10-12-10-8--/--20-22--|
B|---------------------------------------------------------------------------|
G|---------------------------------------------------------------------------|
D|---------------------------------------------------------------------------|
A|---------------------------------------------------------------------------|
E|---------------------------------------------------------------------------|

                                                  h  h  p     p    (bu)
e|-1(b9)20-1(b9)17----------------------------19~~~-1(b9)20-1(b9)17-------20-22-22-~~~---|
B|-------------20-18-17-------------------------------------20-1(b9)---------------|
G|----------------------1(b9)17-16-------------------------------------------------|
D|-------------------------------1(b9)17-------------------------------------------|
A|-------------------------------------------------------------------------------|
E|-------------------------------------------------------------------------------|

     p  p           
e|-20-1(b9)17---p--p-----------------------------------------------------------|
B|----------20-1(b9)17-
-15~~~--13-13-13-13-12-12-12/10-10-10/8~~~-----------|
G|---------------------------------------------------------------------------|
D|---------------------------------------------------------------------------|
A|---------------------------------------------------------------------------|
E|---------------------------------------------------------------------------|
         h  p  h                                
e|------------------------------------------h--h--p--------------------------|
B|-12--12-13-12-10------------12~~~---13--13-15-13-12------------------------|
G|-----------------12-12~~~-(b9)------------------------14-12----14~~~---------|
D|----------------------------------------------------------12---------------|
A|---------------------------------------------------------------------------|
E|---------------------------------------------------------------------------|

e|------------------------14-15-17-15-14-15~~~-------------------------------|
B|----------------------15---------------------------------------------------|
G|--/16-14-12-14~~~---16-----------------------------------------------------|
D|---------------------------------------------------------------------------|
A|---------------------------------------------------------------------------|
E|---------------------------------------------------------------------------|		   
AcordesyTabs.com © 2008 Acordes y Tablaturas para guitarra. Tabs and Chords for guitar. Aviso Legal - Contacto
El uso de este sitio está sujeto a la aceptación de los términos y condiciones (21 usuarios online)