tablaturas, partituras y acordes para guitarra
Busca por banda/artista:
 
y/o título de la canción:
A B C D E F G H I J K L M N O P Q R S T U V W X Y Z 0 1 2 3 4 5 6 7 8 9 / Top 100 tabs
Categorías
Usuarios
usuario:
Darse de alta
password:
Artistas más visitados
Publicidad
TOP acordes y tablaturas de Nevermore


Estás en: Inicio > Letra N > Acordes y tablaturas de Nevermore > Who decides
Who decides
de Nevermore
Puntúa este acorde/tab:      
(0.4/5)
Reportar este acorde/tab
  Añadir a tus favoritos
  Imprimir
Tuned: 1/2 Step Down

Fade in                                                                         
e|--------------------------------------------------------------------!
b|--------------------------------------------------------------------|
G|--------------------------------------------------------------------|
D|--------------------------------------------------------------------|
A|--------------------------------------------------------------------|
E|----------------------------------------------(8)---------------(8)-|
B|----------------------------------------------(6)---------------(6)-|


Intro Riff                               1,3-----!2-----!4-------------!
e|-----------------------------------------------!------!-------------!
b|-----------------------------------------------|------|-------------|
G|-----------------------------------------------|------|-------------|
D|-----------------------------------------------|------|-------------|
A|-----------------------------------------------|-5--7-|-5--7--8---10|
E|(b9)----(b9)-8-----8-----7-----7--6-----5-----4--3-|-3--5-|-3--5--6----8|
B|7--0--7--6--0--6--0--5--0--5--4--0--3--0--2--1-|------|-------------|


Solo/Chorus Riff                                                         
e|------------------------!----------------------------!
b|------------------------|----------------------------|
G|------------------------|---------------------------o|
D|------------------------|----------------------------|
A|------------------------|-8-------7---7-------------o|
E|5---4---3----3---5---3--|-6---8---5---4---10--8--7---|
b|3---2---1----1---3---1--|-----6------------8--6--5---|


                                                                         
Solo
e|---------------------------------------------|-------------------/18|
b|18~~---15--18~~--20~~--20/22--18~~--18p17p15-|-17~~--18~~--20~~-----|
G|o--------------------------------------------|----------------------|
D|---------------------------------------------|--------------------/8|
A|o-8~~---5----8~~--10~~--10/12---8~~--8p-7p-5-|--7~~---8~~--10~~-----|
E|---------------------------------------------|----------------------|
B|---------------------------------------------!----------------------!

                                                                     

e|17h18p17h18p17h18p17h18p17--|------------------------------------|
b|----------------------------|-18~~--17~~--18p17--18--/22~~--20~~-|
G|----------------------------|------------------------------------|
D|-7h-8p-7h-8p-7h-8p-7h-8p-7--|------------------------------------|
A|----------------------------|--8~~---7~~---8p-7---8--/12~~--10~~-|
E|----------------------------|------------------------------------|
B|----------------------------!------------------------------------!

                       

e|-------------------|
b|20--18--17--15~~---|
G|-----------------o-|
D|-------------------|
A|10---8---7---5~~-o-|
E|-------------------|
B|-------------------!

                                                                   
Verse Riff
e|----------0--------0--------5--------6--------6--------5--------|
b|-------6-----6--------6--------6--------6--------6--------6-----|
G|o---7-----------7--------7--------7--------7--------7--------7--|
D|-7--------------------------------------------------------------|
A|o---------------------------------------------------------------|
E|----------------------------------------------------------------|
B|----------------------------------------------------------------!

                                                                     

e|---------0--------3--------5--------6--------5--------3----------|
b|------5-----5--------5--------5--------5--------5--------5-------|
G|---6-----------6--------6--------6--------6--------6--------6--o-|
D|5----------------------------------------------------------------|
A|---------------------------------------------------------------o-|
E|-----------------------------------------------------------------|
B|-----------------------------------------------------------------!

                                                         
Pre-Chorus
e|------------------------------------------------------|
b|-6--------6--------6--------8--------6--------6-------|
G|o---7--------7--------7--------7--------7--------7----|
D|-------8--------8--------8--------8--------8--------8-|
A|o-----------------------------------------------------|
E|------------------------------------------------------|
B|------------------------------------------------------!

                                                           

e|-------------------------------------------------------|
b|5--------5--------5--------5--------5--------5---------|
G|---7--------7--------7--------6--------6--------6-----o|
D|------8--------8--------8--------7--------7--------7---|
A|------------------------------------------------------o|
E|-------------------------------------------------------|
B|-------------------------------------------------------!

                                                                       
Octaves played with Solo/Chorus riff
e|-------------------------|------------------|----------------------|
b|-------------------------|------------------|----------------------|
G|o-7---6---5---5---7---5--|-10---10---(b9)--(b9)-|-12--10--(b9)-7---6---5-|
D|-------------------------|------------------|----------------------|
A|o-5---4---3---3---5---3--|--8----8---7---7--|-10---8--7--5---4---3-|
E|-------------------------|------------------|----------------------|
B|-------------------------!------------------!----------------------!

                                       

e|-----------------------------------|
b|-----------------------------------|
G|5---7---(b9)--10---10--(b9)--(b9)-9/12--o|
D|-----------------------------------|
A|3---5---7----8----8--7---7--7/10--o|
E|-----------------------------------|
B|-----------------------------------!

                             
Outro solo        Last bend
e|---------------|---20gb--|
b|---------------|---------|
G|-------%-------|---------|
D|-------%-------|---10gb--|
A|---------------|---------|
E|---------------|---------|
B|---------------!---------!

Half-Time Riff                              1,3---! 2,4----! 
e|------------------------------------------------!--------!
b|------------------------------------------------|--------|
G|------------------------------------------------|--------|
D|------------------------------------------------|--------|
A|------------------------------------------------|--------|
E|------------------------------------------------|--3--5--|
B|7--0--7--6--0--6--0--5--0--5--4--0--3--0--2--1--|--------|

then it goes double time again and then ends.		   
AcordesyTabs.com © 2008 Acordes y Tablaturas para guitarra. Tabs and Chords for guitar. Aviso Legal - Contacto
El uso de este sitio está sujeto a la aceptación de los términos y condiciones (26 usuarios online)