tablaturas, partituras y acordes para guitarra
Busca por banda/artista:
 
y/o título de la canción:
A B C D E F G H I J K L M N O P Q R S T U V W X Y Z 0 1 2 3 4 5 6 7 8 9 / Top 100 tabs
Categorías
Usuarios
usuario:
Darse de alta
password:
Artistas más visitados
Publicidad
TOP acordes y tablaturas de Nevermore


Estás en: Inicio > Letra N > Acordes y tablaturas de Nevermore > Seed awakening
Seed awakening
de Nevermore
Puntúa este acorde/tab:      
(0.6/5)
Reportar este acorde/tab
  Añadir a tus favoritos
  Imprimir
Tune to C#

Riff A 2x [after second time, hold the 6]
C#|---------------------------------------------------------------------------
G#|---------------------------------------------------------------------------
 E|----------------------------------------------------------------------------
 B|--------------------------------------------(b9)(b9)----8-8---------------------
F#|-------------------7-7---------7-7-----------------------------(b9)(b9)--------
C#|--x-x-x-x-x-x-x-x------0-0-0-0-----0-0-0-0-----0-0-----0-0-0-0-----0-0-0-0-
   [first time only]     * * * *     * * * *     * *     * * * *     * * * *

C#|----------------------------------------------------------------------------
G#|----------------------------------------------------------------------------
 E|-----------------------------------------------------------------------------
 B|-----------------------------------------------------------------------------
F#|-10-10-(b9)(b9)10-10---------7-7------------------------------------------------
C#|-----------------0-0-0-0-----0-0-0-0-7-7-0-0-0-0-6-6-0-0-0-0-(b9)(b9)0-0-0-0-6-6
                   * * * *     * * * *     * * * *     * * * *     * * * *

Riff B: Insanely fucking fast
C#|-----------------------------------------------------------------|
G#|-----------------------------------------------------------------|
 e|*---------------------------------------------------------------*|
 B|*---------------------------------------------------------------*|
F#|-------------------------------------------3-----5-3-2---2-------|
C#|---000-000-000-000-000-000-000-000-0-3-1-0---3-0-------3---3-1---|
    *** *** *** *** *** *** *** ***

Riff C
C#|--------------------------------------------------------------------------
G#|--------------------------------------------------------------------------
 E|---10-10-10-10-10-10-10-10-10-10-10-10-10-10-10-10-------------------------
 B|---10-10-10-10-10-10-10-10-10-10-10-10-10-10-10-10-------------------8-7-3-
F#|--8--8--8--8--8--8--8--8--8--8--8--8--8--8--8--8--8888-7777-5555----8-7-3-
C#|-----------------------------------------------------------------6--6-5-1-
                                                    **** **** ****
Riff B

Riff D
C#|------------------------------------|
G#|------------------------------------|
 e|*----------------------------------*|
 B|*--------3-------3-------3-------3-*|
F#|---------3-------3-------3-------3--|
C#|---0-0-0-1-0-0-0-1-0-0-0-1-0-0-0-1--|
    * * *   * * *   * * *   * * *

Riff C

Riff B

Riff E Clean
C#|----------------------------------------------------------------
G#|----------------------------------------------------------------
 E|-----------------------------------------------------------------
 B|-----------------------------------------------------------------
F#|----2-2---2-2---2---2-2---2-2---2-------------------------------
C#|--4-----4-----4---4-----4-----4---4-4-4-5-5-7-7-8-8-10-10-10-10-

C#|----------------------------------------------------------------|
G#|----------------------------------------------------------------|
 E|-----------------------------------------------------------------|
 B|-----------------------------------7--(b9)-10--12------------------|
F#|----2-2---2-2---2---2-2---2-2-----7--(b9)-10--12------------------|
C#|--4-----4-----4---4-----4-----X-X-5--7--8---10------|

Riff F
C#|--------------------------------------------------------------------------|
G#|--------------------------------------------------------------------------|
 e|*--9/---------(b9)-----------------------9/---------(b9)---------------------*|
 B|*--9/---------(b9)---(b9)(b9)----11-11-11-11-9/---------(b9)----(b9)-8-8--11-X--11-*|
F#|---7/---2--2--7----6-6-----(b9)-(b9)-(b9)-(b9)-7/---2--2--7-----(b9)-8-8--11-X--11--|
C#|--------0--0-----0-----0-0------------------0--0-----0--7--6-6--(b9)-X--(b9)--|
         *  *                                *  *

Riff E

Riff F

Riff C

Riff B with solo then vocals.

Riff C

Riff F

Riff D until the end.

Awesome song, hope this works for you.
Notaion:
* - Palm Mute
/ - Slide
X - No note
 - Harmonics		   
AcordesyTabs.com © 2008 Acordes y Tablaturas para guitarra. Tabs and Chords for guitar. Aviso Legal - Contacto
El uso de este sitio está sujeto a la aceptación de los términos y condiciones (27 usuarios online)