tablaturas, partituras y acordes para guitarra
Busca por banda/artista:
 
y/o título de la canción:
A B C D E F G H I J K L M N O P Q R S T U V W X Y Z 0 1 2 3 4 5 6 7 8 9 / Top 100 tabs
Categorías
Usuarios
usuario:
Darse de alta
password:
Artistas más visitados
Publicidad
TOP acordes y tablaturas de Nevermore


Estás en: Inicio > Letra N > Acordes y tablaturas de Nevermore > Beyond within
Beyond within
de Nevermore
Puntúa este acorde/tab:      
(0.8/5)
Reportar este acorde/tab
  Añadir a tus favoritos
  Imprimir
Tuning: Down 1/2 step

Intro
e|---------------------------------------------------------------------------|
B|---------------------------------------------------------------------------|
G|---------------------------------------------------------------------------|
D|------------555/-66-33----------------------------------------------------|X 8 Times
A|2-22-2-2-2-----------------------------------------------------------------|
E|0 00-0-0-0--333/-44-11----------------------------------------------------|
    ..

     Pre-Verse Riff
e|---------------------------------------------------------------------------|
B|---------------------------------------------------------------------------|
G|(b9)-----10----8----(b9)------10----8-----4 Times-----------------------------|
D|---------------------------------------w/ this-----10 10 10-10--(b9)9-8-8--|
A|/7------8-----6----7-------8-----6-----on the end--------------------------|
E|----00-----0-----0----0000----0-----0--of the 4th---8 8  8  8---7-7-6-8--|
      ..     .     .    ....    .     .

    Verse
e|---------------------------------------------------------------------------|
B|---------------------------------------------------------------------------|
G|----------101010---(b9)(b9)1010----------101010---(b9)(b9)1010---------------------|X 4
D|---------------------------------------------------------------------------|
A|22222222---8 8-8---7-7-8-8--33333333--8-8-8---7-7-8-8----------------------|
E|00000000--------------------11111111---------------------------------------|
  ........                    ........

   Pre Chorus Riff  (I can't really hear what he plays here, so i just play this)

e|---------------------------------------------------------------------------|
B|---------------------------------------------------------------------------|
G|---------------------------------------------------------------------------|X1
D|---------------------------------------------------------------------------|
A|--10--(b9)--8---7---4--------------------------------------------------------|
E|--8---7---6---5---2--------------------------------------------------------|
  


    Chorus
e|---------------------------------------------------------------------------|
B|---------------------------------------------------------------------------|
G|---------------------------------------------------------------------------|
D|------------555/-66-33----------------------------------------------------|X 4
A|2-22-2-2-2-----------------------------------------------------------------|
E|0 00-0-0-0--333/-44-11----------------------------------------------------|
    ..


Clean Part (Feel free to make suggestions on this part, i just play chords)
 
Am    E    G    Em


Bridge

e|---------------------------------------------------------------------------|
B|---------------------------------------------------------------------------|X4
G|-------1-------------------------------------------------------------------|
D|-------2-------------------------------------------------------------------|
A|--7----2-----5-----2-------------------------------------------------------|
E|--5----0-----3-----0-------------------------------------------------------|








Order:
Intro (x8)
Pre-Verse(4)
Verse(4)
Pre Chorus(1)
Chorus (4)
Pre Chorus (1)
Pre Verse (4)
Verse (4)
Pre Chorus (1)
Chorus (4)
Pre Chorus (1)
Clean  (4)
Bridge (4)
Pre Chorus (1)
Pre Verse(4)
Verse (4)
Chorus (8)
Pre Chorus (3)


| ...  palm mute
| /  slide up
|   slide down
| h  hammer-on
| p  pull-off
| ~  vibrato
| +  harmonic
| x  Mute note
===============================================================================		   
AcordesyTabs.com © 2008 Acordes y Tablaturas para guitarra. Tabs and Chords for guitar. Aviso Legal - Contacto
El uso de este sitio está sujeto a la aceptación de los términos y condiciones (25 usuarios online)