tablaturas, partituras y acordes para guitarra
Busca por banda/artista:
 
y/o título de la canción:
A B C D E F G H I J K L M N O P Q R S T U V W X Y Z 0 1 2 3 4 5 6 7 8 9 / Top 100 tabs
Categorías
Usuarios
usuario:
Darse de alta
password:
Artistas más visitados
Publicidad
TOP acordes y tablaturas de Nevermore


Estás en: Inicio > Letra N > Acordes y tablaturas de Nevermore > Poison godmachine
Poison godmachine
de Nevermore
Puntúa este acorde/tab:      
(0.4/5)
Reportar este acorde/tab
  Añadir a tus favoritos
  Imprimir
=  - hold note
.  - palm mute           /  - slide up to
  - slide down to       ~  - vibrato
h  - hammer on           b  - Bend
p  - pull off            Suffixes for bend
t  - tap                 f  - full bend    h - half bend
ph - pinched harmonic    q  - quarter bend t - tap bend
*  - see comment         ^  - Hold bend    r release bend
x  - Staccatto           ~  - vibrato bend
,  - slight palm mute    () - ghost note, sustained note
"  - tremolo note        <> - Trill

Tunning Eb Ab Db Gb Bb Eb

 riff A-1
----------------|----------------|----------------|----------------|
----------------|----------------|----------------|----------------|
----------------|----0=========--|------------7===|5=======--------|
2===========5===|3=============--|2=========--7===|5=======5=======|
2===========5===|3=============--|2=========555===|3=======5=======|
0=========333===|1=============00|0=========------|3=======3=======|

 riff A-2 8x with A-1
----------------|
----------------|
----------------|
----------------|
----------------|
0--01-0030005000|
.  .. ..........

----------------|----------------|----------------|----------------|
----------------|----------------|----------------|----------------|
----------------|----------------|----------------|----------------|
--------3---1===|2===----3-----2-|2-------3---2===|2===----3-----2=|
--------3---1===|2===----3-----1-|2-------3---1===|2===----3-----2=|
----000-1-00----|0===000-1-0000--|0===000-1-00----|0===000-1-00000=|
    ...   ..         ...   ....       ...   ..         ...   ....

 riff B 4x                                        (1st, 2nd, 3rd)      (4th)
----------------|----------------|----------------|----------------|  |----------------|
----------------|----------------|----------------|----------------|  |----------------|
----------------|----------------|----------------|----------------|  |----------------|
====----3---1===|2===----3-----2-|2-------3---2===|2===----3-----2=|  |2===----3---0235|
====----3---1===|2===----3-----1-|2-------3---1===|2===----3-----2=|  |2===----3-------|
====000-1-00----|0===000-1-0000--|0===000-1-00----|0===000-1-00000=|  |0===000-1-------|
    ...   ..         ...   ....       ...   ..         ...   ....          ...

 riff C 2x
----------------|----------------|----------------|----------------|
----------------|----------------|----------------|----------------|
----------------|----------------|----------------|----------------|
3=2=--3-----0235|3=2=--3-----0235|2=----3-----0235|2=----3-----0235|
------3---2-----|------3---2-----|------3---2-----|------3---2-----|
1=0=--1---0-----|1=0=--1---0-----|1=0=--1---0-----|1=0=--1---0-----|

riff B 4x
riff C 2x

 riff D 2x
----------------|----------------|----------------|----------------|
----------------|----------------|----------------|----------------|
----------------|----------------|----------------|----------------|
3-2---2---2-----|3-2---2---2=====|3-2---2---2-----|3-2---2---1-----|
3-2---2---2-----|3-2---2---2=====|3-2---2---2-----|3-2---2---1-----|
1-0-000-000-0000|1-0-000-000=====|1-0-000-000-0000|1-0-000-00------|
    ..  ..  ....     ..  ..           ..  ..  ....     ..  ..

 2x
----0===|--- -0= ==|- -- -0= ==|------- -|--------|--------|--------|--------|
-------0|--- --- -0|- -- --- -0|------- -|--0---0-|--0-----|--0---0-|--------|
--9==9==|--11==11==|- -12==12==|------- -|-3-3-3-3|-3-3-33=|-3-3-3-3|33333343|
-9=9==9=|-8= 8== 8=|- 9= 9== 9=|999999109|----2---|2---2---|2---2---|33333343|
7=======|9== === ==|10== === ==|999999109|1-------|--------|--------|11111121|
--------|--- --- --|- -- --- --|7777778 7|--------|--------|--------|--------|
                                ...                                  ...

 2x
--------|--------|--------|--------|
--------|--------|--------|--------|
--------|5===5===|--------|4==5454=|
2====222|5===5===|2====222|4==-----|
2====222|3===3===|2====222|2==3232=|
0====000|3===3===|0====000|2==-----|
     ...               ...

 2x
--------|--------|--------|--------|
--------|--------|--------|--------|
--------|7===7===|--------|6==7676=|
4====444|7===7===|4====444|6==-----|
4====444|5===5===|4====444|4==5454=|
2====222|5===5===|2====222|4==-----|
     ...               ...

riff A-1 & A-2 (8x)
riff B 4x
riff C 2x
riff D 2x

 with riff D (2x)
--------|--------|--------|----- -- -|
80808080|80808080|80808080|707010010=|
--------|--------|--------|----- -- -|
--------|--------|--------|----- -- -|
--------|--------|--------|----- -- -|
--------|--------|--------|----- -- -|


----------------|----------------|----------------|----------------|
----------------|----------------|----------------|----------------|
----------------|----------------|----------------|----------------|
----------------|----------------|----------------|----------------|
----------------|--------------7=|----------------|----------------|
0--01-0030005000|0--01-00300055--|0--01-0030005000|0--01-00300053==|
.  .. ..........    .. ........   .  .. .......... .  .. ......

----------------|----------------|----------------|----------------|
----------------|----------------|----------------|----------------|
----------------|----------------|----------------|----------------|
----------------|----------------|----------------|----------------|
----------------|--------------7=|----------------|----------------|
0--01-0030005000|0--01-00300055--|0--01-0030005000|0--01-0030006006|
   .. ..                                                        ..		   
AcordesyTabs.com © 2008 Acordes y Tablaturas para guitarra. Tabs and Chords for guitar. Aviso Legal - Contacto
El uso de este sitio está sujeto a la aceptación de los términos y condiciones (32 usuarios online)