tablaturas, partituras y acordes para guitarra
Busca por banda/artista:
 
y/o título de la canción:
A B C D E F G H I J K L M N O P Q R S T U V W X Y Z 0 1 2 3 4 5 6 7 8 9 / Top 100 tabs
Categorías
Usuarios
usuario:
Darse de alta
password:
Artistas más visitados
Publicidad
TOP acordes y tablaturas de Nevermore


Estás en: Inicio > Letra N > Acordes y tablaturas de Nevermore > Seven tongues of god
Seven tongues of god
de Nevermore
Puntúa este acorde/tab:      
(0.6/5)
Reportar este acorde/tab
  Añadir a tus favoritos
  Imprimir
---------------------------------------------|---------------------------------
---------------------------------------------|---------------------------------
-------------------------0-------------------|---------------------------------
--5-3---5-----5--------2----5-3---5-----5----|---------------------------------
--3-1---3-4---3-3----2------3-1---3-4---3-3--|-2-2---2-2-2-2--5--2-------------
--3-1---3-2---3-1--0--------3-1---3-2---3-1--|-0-0---0-0-0-0--3--0-------------



------------------------------------------------------------------------------
------------------------------------------------------------------------------
------------------------------------------------------------------------------
-----------------------------------7------------------------------------------
-2-2-2-2--3-2--2-2-2-2--5----------5--2--2-2-2-2--5-2--2-2-2-2----------------
-0-0-0-0--1-0--0-0-0-0--3--0-0--/5-5--0--0-0-0-0--3-0--0-0-0-0----------------



------------------------------|------------------------------------------------
------------------------------|------------------------------------------------
------------------------------|------5-4-2---------5-4-2-----------------------
------------------------------|------------5-------------5---------------------
-------5-------------3--------|-2-2-----------3-3------------------------------
-3-3-5---5-3-5-1-1-3---3-1-3--|-0-0-----------1-1------------------------------



------------------------------------------------------------------------------
------------------------------------------------------------------------------
----------5-4-2---------5-4-2---------------5-4-2---------5-4-2---------------
----------------5-------------5-------------------5-------------5-------------
-2-2-3-2-----------3-3-----------2-5-3-2-2-----------3-3-----------2-2-3-2----
-0-0-1-0-----------1-1-----------0-3-1-0-0-----------1-1-----------0-0-1-0----

                                   main vocal riff
------------------------------------|----------------------------------
------------------------------------|----------------------------------
--5-4-2---------5-4-2---------------|----------------------------------
--------5-------------5-------------|----------------------------------
-----------3-3-----------2-5-5-3-2--|--------------3-------------------
-----------1-1-----------0-3-2-1-1--|-2-2-2--2-2-2---2-2--2-2-2--------

                          A Section (play 4 times)
---------------------------|------------------------------------------
---------------------------|------------------------------------------
---------------------------|------------------------------------------
------------------------3--|--3-3-----6-6-----5-5-----8-8-------------
------------------------1--|--1-1-4-5-4-4-5-4-3-3-6-7-6-6-7-6-2-5-4---
-5-3-2--2-2-2--3-5-3-0--1--|--1-1-2-3-4-4-3-2-3-3-4-5-6-6-5-4-0-3-2---


CHORUS
strum                strum
------------------------------------------|----------------------------
------------------------------------------|----------------------------
-------0-------0-----------0-------0------|----------------------------
---2-----2---2---2-----1-----1---1---1----|----------------------------
--2--2-----2-------2--1--1-----1-------1--|----------------------------
-0-------------------3--------------------|----------------------------


(SOLO) twice            twice
----0-------0---------|--------------------------------------------------
------3-------3-------|--------------------------------------------------
--------0-------0---3-|--------------------------------------------------
--4-------4-------4---|--------------------------------------------------
--4-------4-----------|--------------------------------------------------
--2-------2-----------|--2-0-2-3-5-3-2-0-2-3-2-0-2-0-2-3-5-3-2-0-2-1-0---


----------------------------------------------|------------------------
----------------------------------------------|------------------------
----------------------------------------------|------------------------
----------------------------------------------|------------------------
-------------------------------2-3-2---2------|------------------------
-2-0-2-3-5-3-2-0-2-3-2-0-2-3-5-------5---5-4--|------------------------


----------------------------------------------------------------------
----------------------------------------------------------------------
----------------------------------------------------------------------
----------------------------------------------------------------------
-5---------5-----5---------7-8-7-5---------5-----5--------------------
----6-6-6-----6-----6-6-6-----------6-6-6-----6-----0-----------------		   
AcordesyTabs.com © 2008 Acordes y Tablaturas para guitarra. Tabs and Chords for guitar. Aviso Legal - Contacto
El uso de este sitio está sujeto a la aceptación de los términos y condiciones (18 usuarios online)