tablaturas, partituras y acordes para guitarra
Busca por banda/artista:
 
y/o título de la canción:
A B C D E F G H I J K L M N O P Q R S T U V W X Y Z 0 1 2 3 4 5 6 7 8 9 / Top 100 tabs
Categorías
Usuarios
usuario:
Darse de alta
password:
Artistas más visitados
Publicidad
TOP acordes y tablaturas de Nevermore


Estás en: Inicio > Letra N > Acordes y tablaturas de Nevermore > This sacrament
This sacrament
de Nevermore
Puntúa este acorde/tab:      
(1/5)
Reportar este acorde/tab
  Añadir a tus favoritos
  Imprimir
open E-strings are muted    
-----6--------------------------------------------------------------
----b10-----------------------6-------------------------------------
------------------(b9)---------b10----------(b9)------------------------
------------------x-----------------------x-------------------------
------------------7-----------------------7-------------------------
---------0-0-0-0----0-0-0-0------0-0-0-0-----0-0-0-0----------------


            
                                   first end     second end
----------------------------------|------------|--------------------
----------------------------------|------------|--------------------
----------------------------------|------------|--------------------
----------------------------------|------------|--------------------
----------------------------------|------------|--0-8h10p8----------
-----0-0-0-0--1p0--0-0-0--4--0-0--|--1p0-(0)---|--------------------



A SECTION                     (first end)    (second end)		   
AcordesyTabs.com © 2008 Acordes y Tablaturas para guitarra. Tabs and Chords for guitar. Aviso Legal - Contacto
El uso de este sitio está sujeto a la aceptación de los términos y condiciones (28 usuarios online)