tablaturas, partituras y acordes para guitarra
Busca por banda/artista:
 
y/o título de la canción:
A B C D E F G H I J K L M N O P Q R S T U V W X Y Z 0 1 2 3 4 5 6 7 8 9 / Top 100 tabs
Categorías
Usuarios
usuario:
Darse de alta
password:
Artistas más visitados
Publicidad
TOP acordes y tablaturas de Nevermore


Passenger
de Nevermore
Puntúa este acorde/tab:      
(0.6/5)
Reportar este acorde/tab
  Añadir a tus favoritos
  Imprimir
Tuning: Eb (Eb-Ab-Db-Gb-Bb-Eb)

Figure 1 :

Eb|---------------------------------------------------------------------------|
Bb|---------------------------------------------------------------------------|
Gb|----------------------------6----------------------------------------1-----|
Db|-------3-/5--3--5-5/6~------6-------------3-/5--3--5-5b6r5p3~--1---3---(3)-|
Ab|-----3----------------------4-----------3------------------------4---------|
Eb|--1~---------------------------------1~------------------------------------|


Figure 2 :

Eb|--------------------------------------------------------------------|
Bb|--------------------------------------------------------------------|
Gb|---------5--------------5-4---------------0-----0-1-----------------|
Db|--------------------------------------------------------------------|
Ab|--------------------------------------------------------------------|
Eb|-4~----4--------4-3~------------3-1~----1---------------1-1-2-3~(4)-|


Figure 3 :
                                                       Ending 1:
Eb|---0---0----0---0----0---0---0---0-----------------|-------------|
Bb|-----0--------0--------0-------0-------------------|-------------|
Gb|---------------------------------------------------|-------------|
Db|-(b9)------11-------12-------(b9)------5-------5-------|-5-------5---|
Ab|-7-------(b9)-------10-------7-------3-------3-------|-3-------3---|
Eb|-7-------(b9)-------10-------7-------3-------3-------|-3-------3---|


Ending 2:

Eb|----------------------------------------------------|
Bb|----------------------------------------------------|
Gb|-2-------2------------------------------------------|
Db|-2-------2------3-------3-------3-------------------|
Ab|-0-------0------3-------3-------3-------------------|
Eb|----------------1-------1-------1-----(1)-1-2-3-(4)-|


Figure 4 :

Eb|-------------------------------------------------------------------------|
Bb|-------------------------------------------------------------------------|
Gb|-------------------------------------------------------------------------|
Db|-(b9)--6---4---5---2---4---4---7---5---6---4-4-4-4-4-4-4-4-2-5-4-5-4-4-4-4-|
Ab|-7---4---4---5---2---4---2---7---5---4---4-4-4-4-4-4-4-4-2-5-4-5-4-4-4-4-|
Eb|-7---4---2---3---0---2---2---5---3---4---2-2-2-2-2-2-2-2-2-3-2-3-2-2-2-2-|
                                              . . .

Song Structure :

4 x Figure 1
2 x Figure 2
2 x Figure 3
1 x Figure 2
2 x Figure 1
2 x Figure 2
2 x Figure 3
1 x Figure 2
-------------------
1 x Figure 4 + Solo
-------------------
1 x Figure 3
1 x Figure 2


Notation Legend:

* -- Palm Mute
b -- Bend
br -- Bend and Release
brp -- Bend Release and Pull Off
pbr -- Bend Note Before Striking and Release
^ -- Strike Note While String Still Bent
h -- Hammer On
p -- Pull Off
tr -- Trill
x -- String Mute/Muffled
~ -- Vibrato
P.H. -- Pinch or Artificial Harmonic
N.H. -- Natural Harmonic
/ -- Slide up to Designated Note
 -- Slide Down to Designated Note
T -- Tap on to Designated Note		   
AcordesyTabs.com © 2008 Acordes y Tablaturas para guitarra. Tabs and Chords for guitar. Aviso Legal - Contacto
El uso de este sitio está sujeto a la aceptación de los términos y condiciones (35 usuarios online)