tablaturas, partituras y acordes para guitarra
Busca por banda/artista:
 
y/o título de la canción:
A B C D E F G H I J K L M N O P Q R S T U V W X Y Z 0 1 2 3 4 5 6 7 8 9 / Top 100 tabs
Categorías
Usuarios
usuario:
Darse de alta
password:
Artistas más visitados
Publicidad
TOP acordes y tablaturas de Nevermore


Estás en: Inicio > Letra N > Acordes y tablaturas de Nevermore > Precognition
Precognition
de Nevermore
Puntúa este acorde/tab:      
(0.5/5)
Reportar este acorde/tab
  Añadir a tus favoritos
  Imprimir
.  - palm mute           /  - slide up to
  - slide down to       ~  - vibrato
h  - hammer on           b  - Bend
p  - pull off            Suffixes for bend
t  - tap                 f  - full bend    h - half bend
ph - pinched harmonic    q  - quarter bend t - tap bend
*  - see comment         ^  - Hold bend    r release bend
x  - Stuccatto           ~  - vibrato bend
,  - slight palm mute    () - ghost note, sustained note
"  - tremolo note        <> - Trill

Tunning Eb Ab Db Gb Bb Eb


Intro:

Guitar 1: Acoustic-Flamenco style feel
|7-77-7-77-7-77-7-7777-7-77-7-77-7-77-7--2--------------------------|
|7-77-7-77-7-77-7-7777-7-77-7-77-7-77-7--2--------------------------|
|8-88-8-88-8-88-8-8888-8-88-8-88-8-88-8--3--------------------------|
|(b9)9(b9)(b9)9(b9)(b9)9(b9)(b9)999(b9)(b9)9(b9)(b9)9(b9)(b9)9(b9)(b9)-4--------------------------|
|(b9)9(b9)(b9)9(b9)(b9)9(b9)(b9)999(b9)(b9)9(b9)(b9)9(b9)(b9)9(b9)(b9)-4--------------------------|
|7-77-7-77-7-77-7-7777-7-77-7-77-7-77-7--2--------------------------|

Guitar 2: Electric-Small bit of echo
|------------------[7]~---------------------------------------------|
|------------------[7]~---------------------------------------------|
|------------------[7]~---------------------------------------------|
|-------------------------------------------------------------------|
|--Artificial Harms-^-----------------------------------------------|
|-------------------------------------------------------------------|

1.Acoustic:
|7-77-7-77-7-77-7-7777-7-77-7-77-7----------------------------------|
|7-77-7-77-7-77-7-7777-7-77-7-77-7----------------------------------|
|8-88-8-88-8-88-8-8888-8-88-8-88-8----------------------------------|
|(b9)9(b9)(b9)9(b9)(b9)9(b9)(b9)999(b9)(b9)9(b9)(b9)9(b9)(b9)---------------------------------|
|(b9)9(b9)(b9)9(b9)(b9)9(b9)(b9)999(b9)(b9)9(b9)(b9)9(b9)(b9)---------------------------------|
|7-77-7-77-7-77-7-7777-7-77-7-77-7----------------------------------|

2.Electric:
|------------------------------[7]~---------------------------------|
|------------------------------[7]~---------------------------------|
|------------------------------[7]~---------------------------------|
|-------------------------------------------------------------------|
|-------------------------------------------------------------------|
|-------------------------------------------------------------------|

|  I've spaced out the chords in the rythm so you can maybe get a   |
|better feel of it, listen to the song and match speed with the solo|

Riff 1
|7--7-7--7--7-7--7--7-7--7--7-x-1--1-7-7-7--7--2--------------------|
|7--7-7--7--7-7--7--7-7--7--7-x-1--1-7-7-7--7--2--------------------|
|8--8-8--8--8-8--8--8-8--8--8-x-2--2-8-8-8--8--3--------------------|
|(b9)-(b9)(b9)-(b9)-(b9)(b9)-(b9)-(b9)(b9)-(b9)-(b9)x-3--3-(b9)(b9)(b9)-(b9)-4--------------------|
|(b9)-(b9)(b9)-(b9)-(b9)(b9)-(b9)-(b9)(b9)-(b9)-(b9)x-3--3-(b9)(b9)(b9)-(b9)-4--------------------|
|7--7-7--7--7-7--7--7-7--7--7-x-1--1-7-7-7--7--2--------------------|

Riff 2
|7--7-7--7--7-7--7--7-7--7--7-x-1--1-7-7-7--7-6-5-4-----------------|
|7--7-7--7--7-7--7--7-7--7--7-x-1--1-7-7-7--7-6-5-4-----------------|
|8--8-8--8--8-8--8--8-8--8--8-x-2--2-8-8-8--8-7-6-5-----------------|
|(b9)-(b9)(b9)-(b9)-(b9)(b9)-(b9)-(b9)(b9)-(b9)-(b9)x-3--3-(b9)(b9)(b9)-(b9)8-7-6-----------------|
|(b9)-(b9)(b9)-(b9)-(b9)(b9)-(b9)-(b9)(b9)-(b9)-(b9)x-3--3-(b9)(b9)(b9)-(b9)8-7-6-----------------|
|7--7-7--7--7-7--7--7-7--7--7-x-1--1-7-7-7--7-6-5-4-----------------|

riff 3 - there is another guitar in background for rythm
|4--4--4--4--4--4--4--44-4-0--0--0--0--0--0--0--0-------------------|
|4--4--4--4--4--4--4--44-4-0--0--0--0--0--0--0--0-------------------|
|5--5--5--5--5--5--5--55-5-1--1--1--1--1--1--1--1-------------------|
|6--6--6--6--6--6--6--66-6-2--2--2--2--2--2--2--2-------------------|
|6--6--6--6--6--6--6--66-6-2--2--2--2--2--2--2--2-------------------|
|4--4--4--4--4--4--4--44-4-0--0--0--0--0--0--0--0-------------------|

[1:14]
Riff 4:Outro riff
|5--5--5--5--8--8--5--5-6--5--4--4--4--4-5554--4--4--4-5-4--3--3--3-|
|5--5--5--5--8--8--5--5-6--5--4--4--4--4-5554--4--4--4-5-4--3--3--3-|
|6--6--6--6--(b9)-(b9)-6--6-7--6--5--5--5--5-4445--5--5--5-6-5--4--4--4-|
|7--7--7--7--10-10-7--7-8--7--6--6--6--6-7776--6--6--6-7-6--5--5--5-|
|7--7--7--7--10-10-7--7-8--7--6--6--6--6-7776--6--6--6-7-6--5--5--5-|
|5--5--5--5--8--8--5--5-6--5--4--4--4--4-5554--4--4--4-5-4--3--3--3-|

 ...cont
|3--4--3--3--3--3---7~----2~-----77777------------------------------|
|3--4--3--3--3--3---7~----2~-----77777------------------------------|
|4--5--4--4--4--4---6~----3~-----88888------------------------------|
|5--6--5--5--5--5---9~----4~-----9999(b9)-----------------------------|
|5--6--5--5--5--5---9~----4~-----9999(b9)-----------------------------|
|3--4--3--3--3--3---7~----2~-----77777------------------------------|

Solo Part one
|--------------------------------------------------14~--------------|
|---12-14-15-14-12-11-/12-11----------------------------------------|
|11-------------------------11-10--10--11p10-11---------------------|
|-------------------------------------------------------------------|
|-------------------------------------------------------------------|
|-------------------------------------------------------------------|

|-------------------------------13-13-13-/13-12--10-12p10-----------|
|---12-14-15-14-12-11-/12-11-12---------------------------12-1211109|
|11-----------------------------------------------------------------|
|-------------------------------------------------------------------|
|-------------------------------------------------------------------|
|-------------------------------------------------------------------|


|--------------------------------12-12-12-11b(12)-11-(b9)-------(b9)----|
|----------------(b9)10-12-10-(b9)10-----------------------12b(14)-(14)r|
|/8-(b9)11-8---8-(b9)---------------------------------------------------|
|-------------------------------------------------------------------|
|-------------------------------------------------------------------|
|-------------------------------------------------------------------|


|--------------------------------------16-16~---16-17-16-14-16-14-12|
|10b(12)-10-10p9p7h9p7-7b(b9)-(b9)9/10-(b9)-------------------------------|
|-------------------------------------------------------------------|
|-------------------------------------------------------------------|
|-------------------------------------------------------------------|
|-------------------------------------------------------------------|


|14-12-11--11h12p11p10-------------[7]~-----------------------------|
|----------------------------------[7]~-----------------------------|
|----------------------------------[7]~-----------------------------|
|-------------------------------------------------------------------|
|-------------------------------------------------------------------|
|-------------------------------------------------------------------|

Solo Part 2
|--------------------------------------------------14~--------------|
|---12-14-15-14-12-11-/12-11----------------------------------------|
|11-------------------------11-10--10--11p10-11---------------------|
|x------------------------------------------------------------------|
|x------------------------------------------------------------------|
|-------------------------------------------------------------------|

|-------------------------------13-13-13-/13-12--10-12p10-----------|
|---12-14-15-14-12-11-/12-11------------------------------12-1211109|
|11-------------------------11--------------------------------------|
|-------------------------------------------------------------------|
|-------------------------------------------------------------------|
|-------------------------------------------------------------------|

           |soft|
|----------------------11--12--14--12--14--/16--14----12p11-12~-----|
|----------------------x--------------------------------------------|
|/8-(b9)11-(b9)11p9p8------x--------------------------------------------|
|----------------------x--------------------------------------------|
|-------------------------------------------------------------------|
|-------------------------------------------------------------------|


|12-11--(b9)-11-12--14--12---12--14--/16--14--12--11-----/1(b9)19b(21)19|
|x-------------------------x----------------------------------------|
|x-------------------------x----------------------------------------|
|x-------------------------x----------------------------------------|
|-------------------------------------------------------------------|
|-------------------------------------------------------------------|

                           /- Drop from the bent 14 down to 13
|1(b9)-16-16-16-14-14-12--b(14)r13--12---11-11hp12-10~----------------|
|-------------------------------------------------------------------|
|-------------------------------------------------------------------|
|-------------------------------------------------------------------|
|-------------------------------------------------------------------|
|-------------------------------------------------------------------|

|(b9)10-12-10-(b9)--10p9h10--------9b(10)--(10)---(10)--(10)r(b9)---(b9)(b9)(b9)|
|x------------------------------------------------------------------|
|x------------------------------------------------------------------|
|x------------------------------------------------------------------|
|-------------------------------------------------------------------|
|-------------------------------------------------------------------|

|7-9p7-(b9)---(b9)10-12-10-(b9)10-(b9)10-7--------18-1(b9)--------------------|
|-----------------------------------------x----------12-12-12-12-12-|
|-----------------------------------------x-------------------------|
|-----------------------------------------x-------------------------|
|-------------------------------------------------------------------|
|-------------------------------------------------------------------|		   
AcordesyTabs.com © 2008 Acordes y Tablaturas para guitarra. Tabs and Chords for guitar. Aviso Legal - Contacto
El uso de este sitio está sujeto a la aceptación de los términos y condiciones (23 usuarios online)