tablaturas, partituras y acordes para guitarra
Busca por banda/artista:
 
y/o título de la canción:
A B C D E F G H I J K L M N O P Q R S T U V W X Y Z 0 1 2 3 4 5 6 7 8 9 / Top 100 tabs
Categorías
Usuarios
usuario:
Darse de alta
password:
Artistas más visitados
Publicidad
TOP acordes y tablaturas de 30 seconds to mars


The fantasy
de 30 seconds to mars
Puntúa este acorde/tab:      
(0.6/5)
Reportar este acorde/tab
  Añadir a tus favoritos
  Imprimir
Intro
e|-------------------------------------------------------------------------|
B|-------------------------------------------------------------------------|
G|-------------------------------------------------------------------------|
D|-11-11-11-11-11-11-11--(b9)-(b9)-(b9)-(b9)11-12-11--6--6--7--7--7--(b9)-(b9)-(b9)-7--7-|
A|-------------------------------------------------------------------------|
E|-------------------------------------------------------------------------|

e|-------------------------------------------------------------------------|
B|-------------------------------------------------------------------------|
G|-------------------------------------------------------------------------|
D|-7--6--11-11-11-11-11-11-11--(b9)-(b9)-(b9)-(b9)11-12-11-6--6--7--7--7--(b9)-------|
A|-------------------------------------------------------------------------|
E|-------------------------------------------------------------------------|

Verse (Palm Mute - Guitar 1)
e|-------------------------------------------------------------------------|
B|-------------------------------------------------------------------------|
G|-------------------------------------------------------------------------|
D|-----------11------(x14)-------------------------------------------------|
A|-(b9)(b9)(b9)(b9)-(b9)-(b9)----------------------------------------------------------|
E|-------------------------------------------------------------------------|

Verse (Distortion - Guitar 2)(You'll have to listen for it. Its a very short part)
e|--(b9)-(b9)-(b9)-(b9)-(b9)-(b9)-(b9)---------------------------------------------------|
B|--(b9)-(b9)-(b9)-(b9)-(b9)-(b9)-(b9)---------------------------------------------------|
G|-11-11-11-11-11-11-11----------------------------------------------------|
D|-11-11-11-11-11-11-11----------------------------------------------------|
A|-------------------------------------------------------------------------|
E|-------------------------------------------------------------------------|

Bridge (Guitar 1 + 2)
e|-(b9)---(b9)---(b9)---(b9)-------------------------------------------------------|
B|-(b9)---(b9)---(b9)---(b9)-------------------------------------------------------|
G|11---11---11---11--------------------------------------------------------|
D|11---11---11---11--------------------------------------------------------|
A|-(b9)---(b9)---(b9)---(b9)-------------------------------------------------------|
E|-------------------------------------------------------------------------|

Chorus (Distortion - Guitar 2) 
e|-------------------------------------------------------------------------|
B|-------------------------------------------------------------------------|
G|-------------------------------------------------------------------------|
D|-7-7-7-(b9)(b9)(b9)4-4-4-4-4-4-----(x2)----------------------------------------|
A|-7-7-7-(b9)(b9)(b9)4-4-4-4-4-4-------------------------------------------------|
E|-7-7-7-(b9)(b9)(b9)4-4-4-4-4-4-------------------------------------------------|

Chorus (Light Distortion - Guitar 1)
e|---(b9)----------(b9)--------------------------------------------------------|
B|-----(b9)----------(b9)------------------------------------------------------|
G|-------11-------------------(x8)-----------------------------------------|
D|----------11-------------------------------------------------------------|
A|-(b9)----------(b9)----------------------------------------------------------|
E|-------------------------------------------------------------------------|

That Little Funky Part
e|-----5------7-------4----------------------------------------------------|
B|----5------7-------4-----------------------------------------------------|
G|---7------(b9)------6------------------------------------------------------|
D|--7------(b9)------6-------------(x2)--------------------------------------|
A|-5------7-------4--------------------------------------------------------|
E|---------------4---------------------------------------------------------|

That Other Little Funky Part
e|-------------------------------------------------------------------------|
B|-------------------------------------------------------------------------|
G|-------------------------------------------------------------------------|
D|------7---7-----6---6----------------------------------------------------|
A|--4-4---4---4-4---4-------5---5-----4------------------------------------|
E|----------------------5-5---5---4-4---4----------------------------------|


Cheers

| /  slide up
|   slide down
| h  hammer-on
| p  pull-off
| ~  vibrato
| +  harmonic
| x  Mute note		   
AcordesyTabs.com © 2008 Acordes y Tablaturas para guitarra. Tabs and Chords for guitar. Aviso Legal - Contacto
El uso de este sitio está sujeto a la aceptación de los términos y condiciones (35 usuarios online)