tablaturas, partituras y acordes para guitarra
Busca por banda/artista:
 
y/o título de la canción:
A B C D E F G H I J K L M N O P Q R S T U V W X Y Z 0 1 2 3 4 5 6 7 8 9 / Top 100 tabs
Categorías
Usuarios
usuario:
Darse de alta
password:
Artistas más visitados
Publicidad
TOP acordes y tablaturas de Mxpx


Estás en: Inicio > Letra M > Acordes y tablaturas de Mxpx > Jay jay"s song
Jay jay"s song
de Mxpx
Puntúa este acorde/tab:      
(0.7/5)
Reportar este acorde/tab
  Añadir a tus favoritos
  Imprimir
r=let the note ring
=slide up  *=a pause
h=hammer-on  p=pull-off

Intro (00:02-00:03)
G|-------------------------|
D|-------------------------|
A|-------5r-7-5-4----------|
E|-7-777----------7-7-5-7-|

Verse (00:05)
G|(x4)--------------------------|
D|------------------------------|
A|----------------5-5-5-4-4-4---|
E|-7--7-7-7-7-7-7-------------5-|

Pre-Verse 1 (00:15)            /(00:20)                   /
G|(x2)-------------------------|(x1)----------------------|
D|-----------------------------|--------------------------|
A|-------5r-7-5-4--------------|-------5r-7-5-4-----------|
E|-7-777----------7-7-5-7--7-7-|-7-777----------7-7-5-7-*-|
 
(00:22)                       /(00:25)                   /
G|(x1)-------------------------|(x1)----------------------|
D|-----------------------------|--------------------------|
A|-------5r-7-5-4--------------|-------5r-7-5-4-----------|
E|-7-777----------7-7-5-7--7-7-|-7-777----------7-7-5-7-*-|
 
(00:27)                                                 /
G|(x2)---------------------------------------------------|
D|-------------------------------------------------------|
A|--------5-5----------7-7---------5r-7-5-4--------------|
E|-3--3-3-----3-5--5-5-----5-7-777----------7-7-5-7--7-7-|
 
(00:37)                                                       /
G|(x3)---------------------------------------------------------|
D|-------------------------------------------------------------|
A|---------5-5-------------7-7-----------5r-7-5-4--------------|
E|-3-333-3-----3-3-5-555-5-----5-5-7-777----------7-7-5-7--7-7-|
 
(00:52)
G|(x1)--------------------------------------------------------|
D|------------------------------------------------------------|
A|---------5-5-------------7-7-----------5r-7-5-4-------------|
E|-3-333-3-----3-3-5-555-5-----5-5-7-777----------7-7-5-7r--7-|

Follow quickly with Verse

(Verse) (00:57-00:58)

Pre-Verse 2 (01:07)
G|(x1)-------------------------|
D|-----------------------------|
A|-------5r-7-5-4--------------|
E|-7-777----------7-7-5-7--7-7-|
 
(01:10)
G|(x4)---------------------------------------------------------|
D|-------------------------------------------------------------|
A|---------5-5-------------7-7-----------5r-7-5-4--------------|
E|-3-333-3-----3-3-5-555-5-----5-5-7-777----------7-7-5-7--7-7-|

Bridge (Bass solo) (01:30)
G|---------------------------------------
D|--------(b9)7---7h9p7--------------------
A|------(b9)----(b9)-------------------------
E|-7-10---------------10-10-10-(b9)(b9)(b9)5-5-
 
(01:33)
G|--------------------------------------
D|---(b9)7---7h9p7------------------------
A|-------(b9)------(b9)7--------------------
E|-7-----------------10-10-10-(b9)(b9)(b9)5-5-
 
(01:36)
G|---------------------------------------
D|--------(b9)7---7h9p7--------------------
A|------(b9)----(b9)-------------------------
E|-7-10---------------10-10-10-(b9)(b9)(b9)5-5-

 (01:38-01:39)
G|-----(b9)7---------------------------|
D|---(b9)----(b9)7-----------------------|
A|-------------(b9)7-------------------|
E|-7---------------10-10-10-(b9)(b9)(b9)5r-|

Outro (01:41)
G|(x1)---------------------------------------------------------|
D|-------------------------------------------------------------|
A|---------5-5-------------7-7-----------5r-7-5-4--------------|
E|-3-333-3-----3-3-5-555-5-----5-5-7-777----------7-7-5-7--7-7-|
 
(01:46-01:47)
G|(x1)-----------------------------------------------------|
D|---------------------------------------------------------|
A|---------5-5-------------7-7-----------5r-7-5-4----------|
E|-3-333-3-----3-3-5-555-5-----5-5-7-777----------7-7-5-7-|End		   
AcordesyTabs.com © 2008 Acordes y Tablaturas para guitarra. Tabs and Chords for guitar. Aviso Legal - Contacto
El uso de este sitio está sujeto a la aceptación de los términos y condiciones (39 usuarios online)