tablaturas, partituras y acordes para guitarra
Busca por banda/artista:
 
y/o título de la canción:
A B C D E F G H I J K L M N O P Q R S T U V W X Y Z 0 1 2 3 4 5 6 7 8 9 / Top 100 tabs
Categorías
Usuarios
usuario:
Darse de alta
password:
Artistas más visitados
Publicidad
TOP acordes y tablaturas de The beatles


Yesterday
de The beatles
Puntúa este acorde/tab:      
(0.4/5)
Reportar este acorde/tab
  Añadir a tus favoritos
  Imprimir
 DISCO:HELP!
 ANO:1965
 GUITARRISTA:GEORGE HARRISON
 TOM ORIGINAL:FÁ MAIOR

       C1 
E|--3-1-1----------(b9)10-12-13-12-10-10--10-10-8-----------------------------1-5-5-5-
B|------1----10-12------------------------------11-10-8-11-10-10-8-6-10-8-3---------
G|------2---------------------------------------------------------------------------  
D|----------------------------------------------------------------------------------   2X
A|----------------------------------------------------------------------------------
E|----------------------------------------------------------------------------------

                                                           C1------------
E|----------------0-1-0---0----------------0-1-0---0-----0--1-------------------------------0-1-0-
B|--------------3-------3---3-1-3--------3-------3---3-1----1--1-1--------------------0-2-3-------3-3
G|----------2-2-2-----------------2-2-2--2------------------2------3-3-2-2--0-------2----------------
D|----------2---0-----------------3------0------------------3------------------3-3-------------------
A|----------0----------------------------------------------------------------------------------------
E|---------------------------------------------------------------------------------------------------


----------------------------------1-5-5-
---3-3-1-----------------------3--------
----------3-2-0-3-2-2-0----2-0----------
-------------------------3--------------  2X
----------------------------------------
----------------------------------------


E|---1-5-3---1-5-5------------------------
B|---------3------------------------------
G|----------------------------------------
D|----------------------------------------
A|----------------------------------------
E|----------------------------------------

                                         FIM


TRANSCRITO POR ANTONIO MARCOS SANTOS DA SILVA
e_mail:do_marcos@hotmail.com
cel.:(71)8155-3723		   
AcordesyTabs.com © 2008 Acordes y Tablaturas para guitarra. Tabs and Chords for guitar. Aviso Legal - Contacto
El uso de este sitio está sujeto a la aceptación de los términos y condiciones (27 usuarios online)