tablaturas, partituras y acordes para guitarra
Busca por banda/artista:
 
y/o título de la canción:
A B C D E F G H I J K L M N O P Q R S T U V W X Y Z 0 1 2 3 4 5 6 7 8 9 / Top 100 tabs
Categorías
Usuarios
usuario:
Darse de alta
password:
Artistas más visitados
Publicidad
TOP acordes y tablaturas de Manowar


Carry on
de Manowar
Puntúa este acorde/tab:      
(0.3/5)
Reportar este acorde/tab
  Añadir a tus favoritos
  Imprimir
Standard Tuning (As always)


INTRO

Acoustic Steel-String                   2x

|----0---------0---------0--------0----|---0--------0------------------------|
|------0---------0---------0--------0--|-----0--------0----------------------|
|--------1---------1---------1--------1|-------1--------1--------------------|
|--------------------------------------|-------------------------------------|
|--------------------------------------|-------------------------------------|
|-0----------0--------0---------0------|-0--------0--------------------------|


                                      1st           2nd

|---2--------2---------4--------4----|---2---------|---0---------------------|
|-----4--------4---------5--------5--|-----4-------|-----0-------------------|
|-------4--------4---------4--------4|-------4-----|-------2-----------------|
|------------------------------------|-------------|-------------------------|
|-2--------2---------4--------4------|-2---------2-|-0-------0---------------|
|------------------------------------|-------------|-------------------------|


Then Play

|---4--------4--------2--------2--------0--------0----------------2----------|
|-----5--------5--------4--------4--------0--------0------------2------------|
|-------4--------4--------4--------4--------1--------1--------2--------------|
|-----------------------------------------------------------4----------------|
|-4--------4--------2--------2----------------------------4------------------|
|-------------------------------------0--------0--------2--------------------|


Some Drumming here...


Riff 1 The chords are E, B, C#, A, - E, B, C, B, - C# C# C# C#  D# D# D# D# E F#


Chorus E E E E B B E E E E  A A E D# E - E E E E  A A E D# E


Solo(Riff 1)

|-------------------------------------------------------------------------10-|
|-----------------------------------------------10-(b9)--10-(b9)--10-(b9)-10-12----|
|-------------------------9(11)br----------(b9)11------(b9)-----(b9)---------------|
|--------(b9)----(b9)11--(b9)11---------(b9)11-11------------------------------------|
|-7-(b9)11----11---------------------------------------------------------------|
|----------------------------------------------------------------------------|


|-12(14)-12(14)-14(16)-14(16)--------------------------------------(b9)11-12---|
|----------------------------------------------------------(b9)10-12-----------|
|--------------------------------------------8h(b9)---8-(b9)11-------------------|
|-------------------------------------7-(b9)11-----11--------------------------|
|------------------------------7-(b9)11----------------------------------------|
|----------------------------------------------------------------------------|


|-14-12-16-14-17-16-1(b9)17-19(21)---------------------------------------------|
|----------------------------------------------------------------------------|
|----------------------------------------------------------------------------|
|----------------------------------------------------------------------------|
|----------------------------------------------------------------------------|
|----------------------------------------------------------------------------|


The Outro Riff: E A  A B C#


Song Structure:

INTRO

Riff 1

Chorus

Riff 1

Chorus

Riff 1

Chorus

Solo

Outro Riff(Fade out)		   
AcordesyTabs.com © 2008 Acordes y Tablaturas para guitarra. Tabs and Chords for guitar. Aviso Legal - Contacto
El uso de este sitio está sujeto a la aceptación de los términos y condiciones (33 usuarios online)