tablaturas, partituras y acordes para guitarra
Busca por banda/artista:
 
y/o título de la canción:
A B C D E F G H I J K L M N O P Q R S T U V W X Y Z 0 1 2 3 4 5 6 7 8 9 / Top 100 tabs
Categorías
Usuarios
usuario:
Darse de alta
password:
Artistas más visitados
Publicidad
TOP acordes y tablaturas de Lindsay lea


Estás en: Inicio > Letra L > Acordes y tablaturas de Lindsay lea > Miracle of love
Miracle of love
de Lindsay lea
Puntúa este acorde/tab:      
(0.7/5)
Reportar este acorde/tab
  Añadir a tus favoritos
  Imprimir
Intro: 
--------7-5---7--------------------7-5---7----------------7-5---7--------------- 
----7-------8---8-7-8p7-5/7----7-------8---8-7-8-5----7-------8---8-7-8p7-5/7--- 
--7---7---------7-7-7-7-4/6--7---7---------7-7-7-4--7---7---------7-7-7-7-4/6--- 
-------------------------------------------------------------------------------- 
-------------------------------------------------------------------------------- 
-------------------------------------------------------------------------------- 
 
--------7-5---7----------------- 
----7-------8---8-7-8p7-5/7----- 
--7---7---------7-7-7---4/6----- 
----------------------------7--- 
----------------------------7--- 
-------------------------------- 
 
D      A         G           A 
Didn't mean too, didn't even want too 
D          A   G           A 
But here I am in love with you 
D       A       G            A 
What to do now, won't matter anyhow 
G                              A 
Cus I can tell just looking at you 
G                             A 
This things gotta hold of you too 
 
 
D      A        G  A 
It's a magical, so natural, 
D      A       G    A 
It's a miracle of love 
D      A       G      A 
So mysterious. thats serious 
D      A       G   A 
It's a miracle of love 
 
 
D     A      G          A 
So remember, sweet is surrender 
D       A   G          A 
Here it is so warm and tender 
D        A      G        A 
Feeling crazy, thinking maybe 
G                                      A 
This is the thing that dreams are made of 
G                            A 
And I could never get enough of 
 
 
D   A        G    A 
So powerful, metaphysical 
D      A       G   A 
It's a miracle of love 
D      A       G      A 
So mysterious. thats serious 
D      A       G   A 
It's a miracle of love 
D      A        G  A 
It's a magical, so natural, 
D      A       G    A 
It's a miracle of love 
D      A       G      A 
So mysterious. thats serious 
D      A       G   A 
It's a miracle of love 
 
Lead: 
---------7------------------------------------------ 
----10-----10-8-10-8-8-7-8-5/7-8-7-7-5-5-3-3-- 
--7----7-------------------------------------------- 
---------------------------------------------------- 
---------------------------------------------------- 
---------------------------------------------------- 
D   A        G    A 
So powerful, metaphysical 
D      A       G   A 
It's a miracle of love 
 
Lead: 
------------------------------------------------------ 
------7-5--------------------------------------------- 
--5/7-----7-6-7(b9)7-6-6/7-6--------------------------- 
----------------------------7------7h9p7---7h9p7---7-- 
-------------------------------7h(b9)------(b9)------(b9)--- 
------------------------------------------------------ 
D      A        G  A 
It's a magical, so natural, 
D      A       G    A 
It's a miracle of love 
 
(fades out) 		   
AcordesyTabs.com © 2008 Acordes y Tablaturas para guitarra. Tabs and Chords for guitar. Aviso Legal - Contacto
El uso de este sitio está sujeto a la aceptación de los términos y condiciones (20 usuarios online)