tablaturas, partituras y acordes para guitarra
Busca por banda/artista:
 
y/o título de la canción:
A B C D E F G H I J K L M N O P Q R S T U V W X Y Z 0 1 2 3 4 5 6 7 8 9 / Top 100 tabs
Categorías
Usuarios
usuario:
Darse de alta
password:
Artistas más visitados
Publicidad
TOP acordes y tablaturas de Disturbed


Stricken
de Disturbed
Puntúa este acorde/tab:      
(1.1/5)
Reportar este acorde/tab
  Añadir a tus favoritos
  Imprimir
Disturbed - Stricken

As Usuall with Dan Donegan, he puts a slight harmonic bend a little once in a while.
Just listen to the song. I tabbed this one up from the Disturbed website, so it was
a little bit of a bitch, if you know what I mean... Enjoy...

Tune down to C


Intro:


|------------------------------------------------------|
|------------------------------------------------------|
|--------5-4---------2--------------5-4---------2------|
|-2-5-2--5-4--4-5--5-2------2--5-2--5-4--4-5--5-2--5-5-|
|-2-5-2--3-2--4-5--5-0----2-2--5-2--3-2--4-5--5-0--5-5-|
|-0-3-0-------2-3--3----3---0--3-0-------2-3--3----3-3-|

|---------------------------------------------------------|
|---------------------------------------------------------|
|---------5-4---------2-----------------------------------|
|-2--5-2--5-4--4-5--5-2------5--5-5--5--5-5-(b9)(b9)(b9)(b9)(b9)(b9)(b9)|
|-2--5-2--3-2--4-5--5-0----2-5--5-5--5--5-5-(b9)(b9)(b9)(b9)(b9)(b9)(b9)|
|-0--3-0-------2-3--3----3---3--3-3--3--3-3-7-7-7-7-7-7-7-|


Verse:

|--------------------------------------------------------|
|--------------------------------------------------------|
|--------------------------------------------------------|
|-2------------------------------------------------------|
|-2------------------------------------------------------|
|-0--0-0--0-0--0-0--0-0--3-5-0--0-0--0-0--0--0-3-5-0-3-5-|

|---------------------------------------------------------|
|---------------------------------------------------------|
|---------------------------------------------------------|
|----------------------------5--5-5--5--5-5-(b9)(b9)(b9)(b9)(b9)(b9)(b9)|
|----------------------------5--5-5--5--5-5-(b9)(b9)(b9)(b9)(b9)(b9)(b9)|
|-0--0-0--0-0--0-0--0-0--3-5-3--3-3--3--3-3-7-7-7-7-7-7-7-|


Chorus:

|-----------------------------------------------|
|-----------------------------------------------|
|---------5--5-5-5-5-5-5-5---------5--5-5-5-5-7-|
|-2--2-5--5--5-5-5-5-5-5-5-2--2-5--5--5-5-5-5-7-|
|-2--2-5--3--3-3-3-3-3-3-3-2--2-5--3--3-3-3-3-5-|
|-0--0-3-------------------0--0-3---------------|

|--------------------------------------------------|
|--------------------------------------------------|
|---------5--5-5-5-5-5-5-5----------------2------2-|
|-2--2-5--5--5-5-5-5-5-5-5-5--5-5--5------2------2-|
|-2--2-5--3--3-3-3-3-3-3-3-5--5-5--5--0-0-0--0-0-0-|
|-0--0-3-------------------3--3-3--3---------------|
                                      x x    x x

Pre-Solo:

|--------------------------|
|--------------------------|
|--------------------------|
|-2--2-----2--2-----2------|
|-2--2-----2--2-----2------|
|-0--0-0-0-0--0-0-0-0--0-0-|


Solo:

|-----------------14-14b--14-------------------------------|
|-15b--15------17------------17----------------------------|
|-----------16------------------16-----12-14-14b-12----12-|
|------------------------------------14--------------14----|
|----------------------------------------------------------|
|----------------------------------------------------------|


|--------------------------------------------------------------|
|--------------------------------------------------------------|
|-------------12-----------12-----------14b--14b--14b--14b--12-|
|-14-12-14-14-----14-12-14-----14-12-14------------------------|
|--------------------------------------------------------------|
|--------------------------------------------------------------|


|-------15-14--------------17b--17-15-17/1(b9)----22b--22--1(b9)|
|----17-------17--------17------------------17--------------|
|-16-------------14--16-------------------------------------|
|-----------------------------------------------------------|
|-----------------------------------------------------------|
|-----------------------------------------------------------|

                 /Bend to 23 and hold
|-20-1(b9)---------------------------------------------------|
|-------20-------------------------------------------------|
|----------1(b9)21b-23-23-23-23-23-23-23-23-23-23-21b--1(b9)21-|
|----------------------------------------------------------|
|----------------------------------------------------------|
|----------------------------------------------------------|


|---------------------12--15p12-14p12----15p12-14p12----|
|------------15--12------------------12-------------12-|
|-12-14-14b---------------------------------------------|
|-------------------------------------------------------|
|-------------------------------------------------------|
|-------------------------------------------------------|


|-15p12-14p12----15p12-14p12----15p12-14p12----15p12-17p12-|
|-------------12-------------12-------------12-------------|
|----------------------------------------------------------|
|----------------------------------------------------------|
|----------------------------------------------------------|
|----------------------------------------------------------|


|-15p12-----17p12-15p12----17p12-15p12----17p12-15p12----17p15-15p12----17p12-|
|-------12--------------12-------------12-------------12-------------12-------|
|-----------------------------------------------------------------------------|
|-----------------------------------------------------------------------------|
|-----------------------------------------------------------------------------|
|-----------------------------------------------------------------------------|


|----------------------------------------------|
|----------------------------------------------|
|-16-12-14-16-12-14-16-12-14-16-------11-12-11-|
|-------------------------------12-14----------|
|----------------------------------------------|
|----------------------------------------------|


|-10b------------------------------------------------------------------|
|-----12h13p12p10-12p10----10b-----10h12h13p12p10----10h12h13p12p10----|
|-----------------------12------12----------------12----------------12-|
|----------------------------------------------------------------------|
|----------------------------------------------------------------------|
|----------------------------------------------------------------------|


|----------------|
|----------------|
|-11h12p11-------|
|----------12-14-|
|----------------|
|----------------|


Outro:

|-------------------------------|
|-------------------------------|
|---------5-4-------------------|
|-2--5-2--5-4--4-5--------------|
|-2--5-2--3-2--4-5--------------|
|-0--3-0-------2-3--3-3-3-3-3-3-|
                    x x x x x x


Tabbed by Mathias Stefansson (mast@egonet.se)
Probably copyrighted by Disturbed.		   
AcordesyTabs.com © 2008 Acordes y Tablaturas para guitarra. Tabs and Chords for guitar. Aviso Legal - Contacto
El uso de este sitio está sujeto a la aceptación de los términos y condiciones (50 usuarios online)