tablaturas, partituras y acordes para guitarra
Busca por banda/artista:
 
y/o título de la canción:
A B C D E F G H I J K L M N O P Q R S T U V W X Y Z 0 1 2 3 4 5 6 7 8 9 / Top 100 tabs
Categorías
Usuarios
usuario:
Darse de alta
password:
Artistas más visitados
Publicidad
TOP acordes y tablaturas de The beatles


In my life
de The beatles
Puntúa este acorde/tab:      
(0.4/5)
Reportar este acorde/tab
  Añadir a tus favoritos
  Imprimir
R e|--5-----0--4-
i B|2---2h3------
f G|-------------  X2
f D|-------------
. A|-------------
1 E|-------------

e|--------------0------------------------------
B|-----0---0--2---2--0--2--0--2--0--------2--2-
G|-------2-------------------------2-----------
D|2--4-------------------------------4--2------
A|---------------------------------------------
E|---------------------------------------------

e|--------------0------------------------------
B|-----0---0--2---2--0--2--0--2--0--------2--2-
G|-------2-------------------------2-----------
D|2--4-------------------------------4--2------
A|---------------------------------------------
E|---------------------------------------------

e|------------------------------------------------
B|--0--2--0-------2--0--2--3--2--0--------2--2--2-
G|2---------2---2------------------2--------------
D|------------4----------------------4--2---------
A|------------------------------------------------
E|------------------------------------------------

e|--------------------------------------------
B|--0--2--0-------2--0---1--0---0--------2--2-
G|2---------2---2-------------2---2-----------
D|------------4--------2------------4--2------
A|--------------------------------------------
E|--------------------------------------------

                  RIFF.1

e|--------------0------------------------------
B|-----0---0--2---2--0--2--0--2--0--------2--2-
G|-------2-------------------------2-----------
D|2--4-------------------------------4--2------
A|---------------------------------------------
E|---------------------------------------------

e|--------------0------------------------------
B|-----0---0--2---2--0--2--0--2--0--------2--2-
G|-------2-------------------------2-----------
D|2--4-------------------------------4--2------
A|---------------------------------------------
E|---------------------------------------------

e|------------------------------------------------
B|--0--2--0----------2--0--2--3--2--0--------2--2-
G|2---------2------2------------------2-----------
D|------------4--4----------------------4--2------
A|------------------------------------------------
E|------------------------------------------------

e|--------------------------------------------------
B|--2--0--0-------------2--0---1--0---0--------2--2-
G|----------2--2------2-------------2---2-----------
D|2--------------4--4--------2------------4--2------
A|--------------------------------------------------
E|--------------------------------------------------

          (Solo de teclado "convertido" para guitarra)

  e|5--7--(b9)-5--12--7--0--7--5--2--4--5--(b9)-7--(b9)-10--12--15--14-
S B|-------------------------------------------------------------
O G|-------------------------------------------------------------
L D|-------------------------------------------------------------
O A|-------------------------------------------------------------
  E|-------------------------------------------------------------

  e|14--12--14--10--14--(b9)-14--7--13--10--7-
S B|----------------------------------------
O G|----------------------------------------
L D|----------------------------------------
O A|----------------------------------------
  E|----------------------------------------

  e|12--10--12--(b9)-12--7--12--5--12--(b9)-7--5-
S B|-----------------------------------------
O G|-----------------------------------------
L D|-----------------------------------------
O A|-----------------------------------------
  E|-----------------------------------------

  e|5--7--(b9)-5--12--7--0--7--5--2--4--5--(b9)-7--(b9)-10--12--15--14-
S B|-------------------------------------------------------------
O G|-------------------------------------------------------------
L D|-------------------------------------------------------------
O A|-------------------------------------------------------------
  E|-------------------------------------------------------------

  e|14--12--14--10--14--(b9)-14--7--13--10--7-
S B|----------------------------------------
O G|----------------------------------------
L D|----------------------------------------
O A|----------------------------------------
  E|----------------------------------------

  e|12--10--12--(b9)-7--0--4--5-
S B|--------------------------
O G|--------------------------
L D|--------------------------
O A|--------------------------
  E|--------------------------

e|-----------------------------------------------
B|----2--0----------2--0--2--3--2--0--------2--2-
G|--2------2------2------------------2-----------
D|4----------4--4----------------------4--2------
A|-----------------------------------------------
E|-----------------------------------------------

e|--------------------------------------------------
B|--2--0--0-------------2--0---1--0---0--------2--2-
G|----------2--2------2-------------2---2-----------
D|2--------------4--4--------2------------4--2------
A|--------------------------------------------------
E|--------------------------------------------------

                  RIFF.1

e|0--8--7--5--7--5-----------5-----0--4--4--2--4--5-
B|----------------------2--2---2h3------------------
G|--------------------------------------------------
D|-----------------4--2-----------------------------
A|--------------------------------------------------
E|--------------------------------------------------		   
AcordesyTabs.com © 2008 Acordes y Tablaturas para guitarra. Tabs and Chords for guitar. Aviso Legal - Contacto
El uso de este sitio está sujeto a la aceptación de los términos y condiciones (26 usuarios online)