tablaturas, partituras y acordes para guitarra
Busca por banda/artista:
 
y/o título de la canción:
A B C D E F G H I J K L M N O P Q R S T U V W X Y Z 0 1 2 3 4 5 6 7 8 9 / Top 100 tabs
Categorías
Usuarios
usuario:
Darse de alta
password:
Artistas más visitados
Publicidad
TOP acordes y tablaturas de Nirvana


Estás en: Inicio > Letra N > Acordes y tablaturas de Nirvana > Come As You Are Intro
Come As You Are Intro
de Nirvana
Puntúa este acorde/tab:      
(0.6/5)
Reportar este acorde/tab
  Añadir a tus favoritos
  Imprimir
I learned this out of an actual tab book that was bought,
I remembered it, except the "repeat" part, I'm absolutely sure of its
accuracy, however I'm 99.9% sure of the repeat part.

E|----------------------------------------------|
B|----------------------------------------------|
G|----------------------------------------------|
D|----------------------------------------------|
A|------------------------------------2---------|
e|---0--0--1--2--5--2--5--2--2--1--0-----0--0---|
repeat this part...
E|----------------------------------------|
B|----------------------------------------|
G|----------------------------------------|
D|----------------------------------------|
A|------------------------------2---------|
e|---1--2--5--2--5--2--2--1--0-----0--0---|

if you want to complain to me or whatever, email me:
nobodysbitch@itookmyprozac.com
		   
AcordesyTabs.com © 2008 Acordes y Tablaturas para guitarra. Tabs and Chords for guitar. Aviso Legal - Contacto
El uso de este sitio está sujeto a la aceptación de los términos y condiciones (21 usuarios online)