tablaturas, partituras y acordes para guitarra
Busca por banda/artista:
 
y/o título de la canción:
A B C D E F G H I J K L M N O P Q R S T U V W X Y Z 0 1 2 3 4 5 6 7 8 9 / Top 100 tabs
Categorías
Usuarios
usuario:
Darse de alta
password:
Artistas más visitados
Publicidad
TOP acordes y tablaturas de 3 Doors Down


Estás en: Inicio > Letra 3 > Acordes y tablaturas de 3 Doors Down > Here Without You
Here Without You
de 3 Doors Down
Puntúa este acorde/tab:      
(0.3/5)
Reportar este acorde/tab
  Añadir a tus favoritos
  Imprimir
Aloha folks, here's my first tab.  The first one didn't get through so 
I hope this one makes it.

Here Without You
3 Doors Down

Verse:
----------------------------------------------------------------
-----------------2-----------1-----------1------------2---------
------------3--------3----------3------------3-----------3------
--------3----------------3----------3------------3--------------
---1------------------------------------------------------------
----------------------------------------------------------------



----------------------------]-----------------------------------
----------------------------]-----------------------------------
--------------3-------------]--------------5--------------------
----------4-------4---------]----------6--------6---------------
------4---------------4-----]-------6----------------6----------
--2-------------------------]---4-------------------------------

or you can stum it as a chord:

---------------------------
---2-----------------------
---3-----3------5----------
---3-----4------6----------
---1-----4------6----------
---------2------4----------

Here is the chorus:

----------------------------------------------------
----------------------------------------------------
-------6---------5--------7---------3---------------
-------6---------6--------8---------4---------------
-------4---------6--------8---------4---------------
-------4---------4--------6---------2---------------


Just follow the song, this is the only tab for it because I couldnt find one 
to begin with and so I was forced to paly by ear.
If some can, please email me lyrics for this song at lala_girl_808@hotmail.com

mahalos!
		   
AcordesyTabs.com © 2008 Acordes y Tablaturas para guitarra. Tabs and Chords for guitar. Aviso Legal - Contacto
El uso de este sitio está sujeto a la aceptación de los términos y condiciones (24 usuarios online)